PrimaNota.ru - самый крупный в мире бесплатный архив песенных текстов, аккордов, табулатур и нот


Eyes Set To Kill - Hourglass - текст песни, таба, видео

Регистрация Запомнить меня
Войти через:  Facebook Google Twitter Vk Yandex Mail.ru

Eyes Set To Kill - Hourglass - текст песни, таба, видео

Печатать
Просмотров: 137
Mabuhay ang mga PINOY!

Song - Hourglass
Artist - Eyes Set To Kill
Album - The World Outside
Year - 2009

Facebook - timtim.lloyd@yahoo.com
MySpace - timtim.lloyd@yahoo.com
Friendster - timtim.lloyd@yahoo.com

READ IT FIRST!!!

This tab is done by ear. Not a perfect tab, maybe 85% or 90%. The BRIDGE and the OUTRO I 
II part is a little bit confusing. In BRIDGE, figure it out how many plucking you will 
and in OUTRO I and II. In OUTRO I, the G2, figure it out how many strumming you will do.

Tuning - Drop C (CGCFAD)

Legend:
"G1" - Guitar 1
"G2" - Guitar 2
"h" - Hammer
"p" - Pull-off
"*" - Palm mute
"/" - Slide
"x" - Dead string

Here's the song. Enjoy! GOD bless!

INTRO (0:00 - 0:10)
D|----------------------------------|
A|-----------------------6-6h8-6-6-6|
F|--------------------5h7-----9-9-9-|
C|--0--5h7-5p3p0---3h5--------------|
G|--0-----------3h5-----------------|
C|--0-------------------------------| (x2)

(0:10 - 0:16)
D|-------------------|--------------------|
A|-------------------|--------------------|
F|-------------------|--------------------|
C|--0-5h7-5p3p0---3h5|-0-5h7-5p3p0-0000-88|
G|--0----------3h5---|-0-----------0000-55|
C|--0----------------|-0-----------0000---|
                                   ****

G1 (0:16 - 0:21)
D|-------------------|-------------------|
A|-------------------|-------------------|
F|----5h7---------5h7|---5h7-------------|
C|--0----7p5p0-3h5---|-0----7p5p0-0000-88|
G|--0----------------|-0----------0000-55|
C|--0----------------|-0----------0000---|
                                  ****

G2 (0:16 - 0:21)
D|-------------------|--------------------|
A|-------------------|--------------------|
F|-------------------|--------------------|
C|--0-5h7-5p3p0---3h5|-0-5h7-5p3p0-0000-88|
G|--0----------3h5---|-0-----------0000-55|
C|--0----------------|-0-----------0000---|
                                   ****
=================================================================================================

VERSE (0:21 - 0:27)
D|-----------------------------------------------|
A|-----------------------------------------------|
F|-----------------------------------------------|
C|--0-0000-0000-0000-8----2-2h3p2-3h5p3-2h3h5p3p2|
G|--0-0000-0000-0000-5-3-5-5-----5---------------|
C|--0-0000-0000-0000-----------------------------|
      **** **** ****

(0:27 - 0:32)
D|-----------------------------------------------|
A|-----------------------------------------------|
F|-----------------------------------------------|
C|--0-0000-0000-0000-8----2-2h3p2-3h5p3-5h7h8p7p5|
G|--0-0000-0000-0000-5-3-5-5-----5---------------|
C|--0-0000-0000-0000-----------------------------|
      **** **** ****

(0:32 - 0:43)
D|------------------------------|
A|------------------------------|
F|------------------------------|
C|--0-2h3h5p3p2-7-5555555/888888|
G|--0-------------5555555/888888|
C|--0-------------5555555/888888| (x2)

=================================================================================================

PRE-CHORUS (0:43 - 0:48)
D|--------------------------------|
A|--------------------------------|
F|--14141414141414--10/9-77777-666|
C|--xxxxxxxxxxxxxx--xxxx-xxxxx-xxx|
G|--12121212121212--8//7-55555-444|
C|--------------------------------|

(0:48 - 0:53)
D|--------------------------------------|
A|--------------------------------------|
F|--14141414141414--10/9-6666-----------|
C|--xxxxxxxxxxxxxx--xxxx-xxxx-----------|
G|--12121212121212--8//7-4444---------5-|
C|---------------------------0-3-0-5-0-5|

=================================================================================================

CHORUS (0:53 - 1:04)
D|---------------------------------|
A|---------------------------------|
F|---------------------------------|
C|--0-5h7-5p3p0---3h5-555555/888888|
G|--0----------3h5----555555/888888|
C|--0-----------------555555/888888| (x2)

G1 (1:04 - 1:15)
D|---------------------------------|
A|----------------------6-6h8-6-6-6|
F|---5h7---------5h7-5h7-----9-9-9-|
C|--0---7p5p0-3h5------------------|
G|--0------------------------------|
C|--0------------------------------| (x2)

G2 (1:04 - 1:15)
D|---------------------------------|
A|---------------------------------|
F|---------------------------------|
C|--0-5h7-5p3p0---3h5-555555/888888|
G|--0----------3h5----555555/888888|
C|--0-----------------555555/888888| (x2)

=================================================================================================

VERSE (1:15 - 1:20)
D|-----------------------------------------------|
A|-----------------------------------------------|
F|-----------------------------------------------|
C|--0-0000-0000-0000-8----2-2h3p2-3h5p3-2h3h5p3p2|
G|--0-0000-0000-0000-5-3-5-5-----5---------------|
C|--0-0000-0000-0000-----------------------------|
      **** **** ****

(1:20 - 1:26)
D|-----------------------------------------------|
A|-----------------------------------------------|
F|-----------------------------------------------|
C|--0-0000-0000-0000-8----2-2h3p2-3h5p3-5h7h8p7p5|
G|--0-0000-0000-0000-5-3-5-5-----5---------------|
C|--0-0000-0000-0000-----------------------------|
      **** **** ****
(1:26 - 1:36)
D|------------------------------|
A|------------------------------|
F|------------------------------|
C|--0-2h3h5p3p2-7-5555555/888888|
G|--0-------------5555555/888888|
C|--0-------------5555555/888888| (x2)

=================================================================================================

PRE-CHORUS (1:36 - 1:42)
D|--------------------------------|
A|--------------------------------|
F|--14141414141414--10/9-77777-666|
C|--xxxxxxxxxxxxxx--xxxx-xxxxx-xxx|
G|--12121212121212--8//7-55555-444|
C|--------------------------------|

(1:42 - 1:47)
D|--------------------------------------|
A|--------------------------------------|
F|--14141414141414--10/9-6666-----------|
C|--xxxxxxxxxxxxxx--xxxx-xxxx-----------|
G|--12121212121212--8//7-4444---------5-|
C|---------------------------0-3-0-5-0-5|

=================================================================================================

CHORUS (1:47 - 1:58)
D|---------------------------------|
A|---------------------------------|
F|---------------------------------|
C|--0-5h7-5p3p0---3h5-555555/888888|
G|--0----------3h5----555555/888888|
C|--0-----------------555555/888888| (x2)

G1 (1:58 - 2:08)
D|---------------------------------|
A|----------------------6-6h8-6-6-6|
F|---5h7---------5h7-5h7-----9-9-9-|
C|--0---7p5p0-3h5------------------|
G|--0------------------------------|
C|--0------------------------------| (x2)

G2 (1:58 - 2:09)
D|---------------------------------|
A|---------------------------------|
F|---------------------------------|
C|--0-5h7-5p3p0---3h5-555555/888888|
G|--0----------3h5----555555/888888|
C|--0-----------------555555/888888| (x2)


=================================================================================================

BRIDGE (2:09 - 2:19)
D|-----------------------------------------------------------------------|
A|--3-3-3-3-3-3-3-3-3-3-3-3-3-3-3-3-3-3-3-3-3-3-3-3-3-3-3-3-3-3-3-3-3-3-3|
F|-7-7-7-7-7-7-7-7-7-7-7-6-6-3-3-3-3-3-3-3-3-3-3-0-0-2-2-2-2-2-2-2-2-2-2-|
C|-----------------------------------------------------------------------|
G|-----------------------------------------------------------------------|
C|-----------------------------------------------------------------------|

continued...
D|-----------------------------------|
A|--3-3-3-3-3-3-3-3-3-3-3-3-3-3-3-3-3|
F|-----0-0-0-0-0-0-0-0---------------|
C|-3-3-----------------1-1-1-1-1-1-1-|
G|-----------------------------------|
C|-----------------------------------|

=================================================================================================

OUTRO I (2:19 - 3:02)
G1
D|---------------------------------------------|
A|--3-3-3-3-3-3-3-3-3-3-3-3-3-3-3-3-3-3-3-3-3-3|
F|-7-7-7-7-7-7-7-7-7-7-7-7-7-7-7-7-7-7-7-7-7-7-|
C|---------------------------------------------|
G|---------------------------------------------|
C|---------------------------------------------| (x4)

G2 (2:19 - 3:02)
D|-----------------------------------------|
A|-----------------------------------------|
F|-----------------------------------------|
C|-00000000-88888888-55555555-77777-1111111|
G|-00000000-88888888-55555555-77777-1111111|
C|-00000000-88888888-55555555-77777-1111111| (x4)

=================================================================================================

OUTRO II (3:02 - 3:26)
D|-----------------------------------------------------------------------|
A|--3-3-3-3-3-3-3-3-3-3-3-3-3-3-3-3-3-3-3-3-3-3-3-3-3-3-3-3-3-3-3-3-3-3-3|
F|-7-7-7-7-7-7-7-7-7-7-7-6-6-3-3-3-3-3-3-3-3-3-3-0-0-2-2-2-2-2-2-2-2-2-2-|
C|-----------------------------------------------------------------------|
G|-----------------------------------------------------------------------|
C|-----------------------------------------------------------------------|

continued...
D|-----------------------------------|
A|--3-3-3-3-3-3-3-3-3-3-3-3-3-3-3-3-3|
F|-----0-0-0-0-0-0-0-0---------------|
C|-3-3-----------------1-1-1-1-1-1-1-|
G|-----------------------------------|
C|-----------------------------------| (x2. Last part fade away)

END.... =))

Thanks for dropping by! =))
-tim.
Добавлено: 26.06.2012
Другие материалы по этой песне:
  • Аккорды и текст

Страница создана 26.06.2012
http://primanota.ru/eyes-set-to-kill/hourglass-chords.htm
Привет, Гость.
Предлагаем пройти революционный курс по гитаре.
Подарок от PrimaNota.Ru, забирай!