PrimaNota.ru - самый крупный в мире бесплатный архив песенных текстов, аккордов, табулатур и нот


Exodus - A Lesson In Violence - текст песни, таба, бас-таба, видео

Регистрация Запомнить меня
Войти через:  Facebook Google Twitter Vk Yandex Mail.ru

Exodus - A Lesson In Violence - текст песни, таба, бас-таба, видео

Печатать
Просмотров: 257
Авторы музыки: Gary Holt, Rick Hunolt
Авторы текста: Gary Holt
A Lesson in Violence
Exodus
Bonded By Blood 1985

Standard(EADGBE)

Ph=Pinch Harmonic
P=Pull Off
H-Hammer
*=Tremelo Pick

|------------------------------------------------|
|------------------------------------------------|
|------------------------------------------------|
|-4----------7/6/7/5-4---------7/6/7/10----------|
|-2-22222222-5/4/5/3-2-2222222-5/4/5/8-----------|
|------------------------------------------------|x6
    ********           *******
|--------------------------------------------------------|
|--------------------------------------------------------|
|--------------------------------------------------------|
|---------------6-5------------------7----7---7/9--------|
|2----------7-6-4-3-5p2-2------------5----5---5/7--------| 
|0-00000000-5-4-----3p0-0-00000000-----00---00-----------|
   ********               ********
|-----------------------------------------------| 
|-----------------------------------------------|
|-----------------------------------------------|
|------6-5-----------6-5------------6-5---------|
|-7-6--4-3-5-2--7-6--4-3--5-2--7-6--4-3-5--2—4--|     
|-5-4------3-0--5-4-------3-0--5-4------3--0--2 |

|------------------------------------------------------- |
|------------------------------------------------------- |
|------------------------------------------------------- |
|-4----------7/6/7/5-4---------7/6/7/10------------------|
|-2-22222222-5/4/5/3-2-2222222-5/4/5/8-------------------|
|--------------------------------------------------------|x4
    ********           *******
|--------------------------------------------------------|
|--------------------------------------------------------|
|--------------------------------------------------------|
|---------------6-5------------------7----7---7/9--------|
|2----------7-6-4-3-5p2-2------------5----5---5/7--------| 
|0-00000000-5-4-----3p0-0-00000000-----00---00-----------|
   ********               ********
Chorus
(Play Ax3, only doing the Ph on the 1st and 3rd times then end with B)
A                                            B
|------------------------------|-----------------------|
|------------------------------|-----------------------|
|-----------------------8ph----|-----------------------|
|-10-9-7/10-10-9---------------|10-9-7-----------------|
|-8--7-5/8---8—7---------------|8--7-5—8-7-5-----------|
|------------------------------|-------6-5-3-----------|

|--------------------------------------------------------|
|--------------------------------------------------------|
|--------------------------------------------------------|
|---------------6-5------------------7----7---7/9--------|
|2----------7-6-4-3-5p2-2------------5----5---5/7--------| 
|0-00000000-5-4-----3p0-0-00000000-----00---00-----------|
   ********               ********
|-----------------------------------------------| 
|-----------------------------------------------|
|-----------------------------------------------|
|------6-5-----------6-5------------6-5---------|
|-7-6--4-3-5-2--7-6--4-3--5-2--7-6--4-3-5--2—---|     
|-5-4------3-0--5-4-------3-0--5-4------3--0--2 |

|--------------------------------------|
|------------------------------------- |
|--------------------------------------|
|-4----------7/6/7/5-4---------7/6/7/10|
|-2-22222222-5/4/5/3-2-2222222-5/4/5/8-|
|--------------------------------------|x6
    ********           *******
|--------------------------------------------------------|
|--------------------------------------------------------|
|--------------------------------------------------------|
|---------------6-5------------------7----7---7/9--------|
|2----------7-6-4-3-5p2-2------------5----5---5/7--------| 
|0-00000000-5-4-----3p0-0-00000000-----00---00-----------|
   ********               ********
Chorus
(Play Ax3, only doing the Ph on the 1st and 3rd times then end with B)
A                                            B
|------------------------------|-----------------------|
|------------------------------|-----------------------|
|-----------------------8ph----|-----------------------|
|-10-9-7/10-10-9---------------|10-9-7-----------------|
|-8--7-5/8---8—7---------------|8--7-5—8-7-5-----------|
|------------------------------|-------6-5-3-----------|



Solo rhythm
-------------------------------------------------|
-------------------------------------------------|
-------------------------------------------------|
-------------------------------------------------|
------- 10-9-7-10-10-9-9---------8-7-5-----------|x4
-000000-8--7-5-8--8--7-7---------------6-5-3-----|

|-------------------------------------------------------------------|
|-------------------------------------------------------------------|
|-------------------------------------------------------------------|
|--------------------------44444----------------------------------4-|
|------------55555-75444444------7544444-----9-999999999999999999-2-|
|-33333-22222---------------------------4-5-7-----------------------|
 ***** ********** ******** **** *******       ******************
|------------------------------------------------------- |
|------------------------------------------------------- |
|------------------------------------------------------- |
|-4----------7/6/7/5-4---------7/6/7/10------------------|
|-2-22222222-5/4/5/3-2-2222222-5/4/5/8-------------------|
|--------------------------------------------------------|x6
    *******            *******      

Outro
-------------------------------|
-------------------------------|
-------------------------------|
-11-9-7-9-7-6-7-6-4-6-4-2----4-|
-9--7-5-7-5-4-5-4-2-4-2-0----2-|
-------------------------------|
Добавлено: 06.06.2012
Другие материалы по этой песне:

Страница создана 11.05.2012
http://primanota.ru/exodus/a-lesson-in-violence-chords.htm
Привет, Гость.
Предлагаем пройти революционный курс по гитаре.
Подарок от PrimaNota.Ru, забирай!