PrimaNota.ru - самый крупный в мире бесплатный архив песенных текстов, аккордов, табулатур и нот


Exodus - Children Of A Worthless God - таба, видео

Регистрация Запомнить меня
Войти через:  Facebook Google Twitter Vk Yandex Mail.ru

Exodus - Children Of A Worthless God - таба, видео

Печатать
Просмотров: 265
Children Of A Worthless God by Exodus

Im pretty sure this song is tuned do one whole step but I have just written it out in 
tuning. Im working on the rest of the song and should post it soon. Please leave comments!

[------------------------------------------------------------------------|
[------------------------------------------------------------------------|
[------------------------------------------------------------------------|
[-------------------------------4--5--7--5--4----------------------------|
[---5~~---3--5--6--3--5--6--5~~---------------6--5~~--3--5--6--3--5--6---|
[------------------------------------------------------------------------|

[-------------------------------------------------------]
[-------------------------------------------------------]
[--------------------5--7--8--7--5----------------------]PLAY 4 TIMES
[--4--5--7--4--5--7----------------7--5--4--------------]
[-------------------------------------------6--5--3--5--]
[-------------------------------------------------------]
Добавлено: 03.06.2012
Другие материалы по этой песне:

Страница создана 29.02.2012
http://primanota.ru/exodus/children-of-a-worthless-god-chords.htm
Привет, Гость.
Предлагаем пройти революционный курс по гитаре.
Подарок от PrimaNota.Ru, забирай!