PrimaNota.ru - самый крупный в мире бесплатный архив песенных текстов, аккордов, табулатур и нот


Everlast - Pain - текст песни, таба, видео

Регистрация Запомнить меня
Войти через:  Facebook Google Twitter Vk Yandex Mail.ru

Everlast - Pain - текст песни, таба, видео

Печатать
Просмотров: 259
----------------------------------------------------------------------------
			     PAIN - Everlast
----------------------------------------------------------------------------

Tabbed by: Titus
Email:Eaglestalon101@yahoo.com

Tuning: Standard

  Verse and prechorus
  D  D U D U D  D U D U D  D U D U D D  D U D
e|0--0-0-0-0-1--1-1-0-0---------------------------|
B|0--0-0-0-0-0--0-0-0-0-3--3-3-x-x-x-1--1-1-1-----|
G|0--0-0-0-0-0--0-0-0-0-2--2-2-x-x-x-x--x-x-x-----|
D|2--2-2-0-0-x--x-x-0-0-0--0-0-x-x-x-2--0h2p0-----|
A|2--2-2-0-0-2--2-2-0-0-0--0-0-x-x-x-3--0h3p0-----|
E|0--0-0-0-0-3--3-3-0-0-x--x-x-x-x-x-x--x---------| 

^play as many times necessary
 
 During Prechorus, Gtr II jumps in on the D chord w/ Dist.

e|-0-3-5--8-5----|  
B|---------------|  
G|---------------|
D|---------------|
A|---------------|
E|---------------|

  Guitar II w/ Dist.

e|-----------------------------|
B|-----------------------------|
G|-------------------------2---|
D|-2--2-4-5--5-4-2--2-4-5--2---|
A|-2--2-4-5--5-4-2--2-4-5--0---|
E|-0--0-2-3--3-2-0--0-2-3------|

  Gtr I after chorus, I can't quite make this one out
e|------------0---|-----------------0-|
B|--------------0-|-----------------0-|
G|------0---0-----|----------0--------|
D|---2------------|------2-----2------|
A|-2---2--2-------|--------2------2---|
E|----------------|-b3p0--------------|

   Bridge
   D D D D D D D D D D D D D    U D    U D  D
e|------------------------------------------------------------|
B|------------------------------------------------------------|
G|------------------------------------------------------------|
D|-2-2-2-2-5-5-5-5-7-7-7-7-9\7--7-7\5--5-5--2-----------------|
A|-2-2-2-2-5-5-5-5-7-7-7-7-9\7--7-7\5--5-5--2-----------------|
E|-0-0-0-0-3-3-3-3-5-5-5-5-7\5--5-5\3--3-3--0-----------------|


e|------------0---|-----------------0-|
B|--------------0-|-----------------0-|
G|------0---0-----|----------0--------|
D|---2------------|------2-----2------|
A|-2---2--2-------|--------2------2---|
E|----------------|-b3p0--------------|


  D  D U D U D  D U D U D  D U D U D D  D U D
e|0--0-0-0-0-1--1-1-0-0---------------------------|
B|0--0-0-0-0-0--0-0-0-0-3--3-3-x-x-x-1--1-1-1-----|
G|0--0-0-0-0-0--0-0-0-0-2--2-2-x-x-x-x--x-x-x-----|
D|2--2-2-0-0-x--x-x-0-0-0--0-0-x-x-x-2--0h2p0-----|
A|2--2-2-0-0-2--2-2-0-0-0--0-0-x-x-x-3--0h3p0-----|
E|0--0-0-0-0-3--3-3-0-0-x--x-x-x-x-x-x--x---------|


  Guitar II w/ Dist.

e|-----------------------------|
B|-----------------------------|
G|-------------------------2---|
D|-2--2-4-5--5-4-2--2-4-5--2---|
A|-2--2-4-5--5-4-2--2-4-5--0---|
E|-0--0-2-3--3-2-0--0-2-3------|

Let last chord ring out 




| /  slide up
| \  slide down
| h  hammer-on
| p  pull-off
| ~  vibrato
| +  harmonic
| x  Mute note
===========================================================================
Добавлено: 09.11.2013
Другие материалы по этой песне:
  • Аккорды и текст

Страница создана 08.03.2012
http://primanota.ru/everlast/pain-chords.htm
Привет, Гость.
Предлагаем пройти революционный курс по гитаре.
Подарок от PrimaNota.Ru, забирай!