PrimaNota.ru - самый крупный в мире бесплатный архив песенных текстов, аккордов, табулатур и нот


Everlast - Sad Girl - текст песни, таба, видео

Регистрация Запомнить меня
Войти через:  Facebook Google Twitter Vk Yandex Mail.ru

Everlast - Sad Girl - текст песни, таба, видео

Печатать
Просмотров: 414
Sad Girl by Everlast:
tabbed by Eragond22 and primacy11

INTRO:
      D#              F#                D#             D#
e|--------------------0--------------------------------0-------------|
B|-------------2--0---2--2h5--5p2----------------2--0--2-------------|
G|----------1---------3-----------3p1--------1--------3--------------|
D|-------3------------4--------------------3-----------4-------------|
A|----4---------------------------------4----------------------------|
E|-------------------------------------------------------------------|


VERSE/CHORUS:

     D#    F#
e|-xxxxxx--00---0----------------------------------------------------|
B|-222222--22------2--0--2-------------------------------------------|
G|-111111--33---------------1----------------------------------------|
D|-333333--44--------------------------------------------------------|
A|-444444------------------------------------------------------------|
E|-xxxxxx------------------------------------------------------------|


PRE-CHORUS:

     B        F#
e|-xxxxxx--0-0-0-0---------------------------------------------------|
B|-444444--2-2-2-2---------------------------------------------------|
G|-444444--3-3-3-3---------------------------------------------------|
D|-444444--4-4-4-4---------------------------------------------------|
A|-222222------------------------------------------------------------|
E|-------------------------------------------------------------------|

Добавлено: 20.01.2014
Другие материалы по этой песне:
  • Аккорды и текст

Страница создана 21.03.2012
http://primanota.ru/everlast/sad-girl-chords.htm
Привет, Гость.
Предлагаем пройти революционный курс по гитаре.
Подарок от PrimaNota.Ru, забирай!