PrimaNota.ru - самый крупный в мире бесплатный архив песенных текстов, аккордов, табулатур и нот


Everlast - Friend - аккорды и текст, таба, видео

Регистрация Запомнить меня
Войти через:  Facebook Google Twitter Vk Yandex Mail.ru

Everlast - Friend - аккорды и текст, таба, видео

Печатать
Просмотров: 1053
Friend
Everlast
capo 2 - standard tune EADGBE
CHORDS
G  320033
Em 022000
Bm X24432
C  x32010

h - hammer on
/ - slide 


VERSE - repeat G C Em Bm
There's a sickness in my soul
And I don't know but I been told
It's incurable

There's a darkness in my heart
Slowly tearin' me apart
It's unbearable

Drop of blood, a lake of tears
And baby, after all these years
You're still beautiful

And I've been loved and I've been used
Cut wide open, scarred and bruised
I'm unbreakable

CHORUS - C Em Bm C
Flesh, it heals I know
Hearts, they never mend
Lovers come and go, girl
Right now I need a friend

(I play this after every chorus, I like it
you don't have to slide to 5, you can just play the G note again)
e|-------------------------------------------------------|
B|-------------------------------------------------------|
G|-----0---0---0---0-------------------------------------|
D|--0h2-0h2-0h2-0h2-0h2/5-5------------------------------|
A|-------------------------------------------------------|
E|-------------------------------------------------------|


VERSE - again G C Em Bm
Walk for miles, talk for days
And I keep trying to change my ways
It's so difficult

You kick and scream
You curse and yell
Tell me I should go to hell
It's so typical

Touch my heart
Feel my pain
Let me know I'm not insane
You're so merciful

Break your heart, I cheat, I lie
And honestly I don't know why
I'm so pitiful

CHORUS - C Em Bm C
Flesh, it heals I know
Hearts, they never mend
Lovers come and go, girl
Right now I need a friend, yeah

(solo)
2x
(you can add as many strums as you think it's right)
e|33-22-333-22-3-2------33-22-333-22-3-5---------------|
B|33-33-333-33-3-3------33-33-333-33-3-3---------------|
G|-----------------------------------------------------|
D|-----------------------------------------------------|
A|-----------------------------------------------------|
E|-----------------------------------------------------|

VERSE

There's a sickness in my soul
And I don't know but I been told
It's incurable

There's darkness in my heart
That's slowly tearin' me apart
It's unbearable, yeah

CHORUS
Flesh, it heals I know
Hearts, they never mend
Lovers come and go, girl
Right now I need a friend, yeah
Right now I need a friend

LAST VERSE 
G C 

There's a sickness in my soul

(now, only 1 strum)
Em Bm G 

And I don't know 
but I been told
It's incurable
Добавлено: 29.09.2013
Другие материалы по этой песне:
  • Аккорды и текст

Страница создана 07.09.2013
http://primanota.ru/everlast/friend-chords.htm
Привет, Гость.
Предлагаем пройти революционный курс по гитаре.
Подарок от PrimaNota.Ru, забирай!