PrimaNota.ru - самый крупный в мире бесплатный архив песенных текстов, аккордов, табулатур и нот


Eva Cassidy - Aint No Sunshine - текст песни, таба, видео

Регистрация Запомнить меня
Войти через:  Facebook Google Twitter Vk Yandex Mail.ru

Eva Cassidy - Aint No Sunshine - текст песни, таба, видео

Печатать
Просмотров: 476
Авторы музыки: Bill Withers
Авторы текста: Bill Withers
Title: Ain't No Sunshine

Artist: Eva Cassidy

>From the album "Time After Time"

There are only a few bars to this because it is repetitive throughout
the song. There are variations for each verse and the piano break
but basically its the same right through.
You can use a little imagination and add your own touch for each verse.

*** Capo on 7th Fret ***

Intro and verses:

|------------------|----3----------------|-----------------|
|-----------0h1-0--|----5----------------|----------0h1-0--|
|-----0-0h2-------0|----2----------------|-----0-0h2------0|
|---2-------------0|--2-------------2---2|---2------------0|
|------------------|0---------------2---2|0----------------|
|---------------0--|--------------0---3--|--------------0--|



|-----3------------|---------------------|-----------------|
|-----5------------|--------------5---5-5|3---3-1h3-1---4-4|
|-----2------------|----------0h2-5---5-5|4---4-2---2---3-3|
|---2---------2---2|----------0h2--------|--2-----------2-2|
|-0-----------2---2|0-------0------------|--------------4-4|
|-----------0---3 -|---------------------|--------------2-2|



|------------------|---------------------|-----------------|
|3----3-3-3-----1--|--------------------1|-----------------|
|2----2-2-------1--|----0h2-0h2-2---0h2-2|-----------------|
|1----1-1-------2--|----0h2-0h2-2---0h2--|-----------------|
|------------------|0-0---------2--------|0----------------|
|1----1-1-0---0----|--------------0------|-----------------|

     
Добавлено: 28.06.2013
Другие материалы по этой песне:

Страница создана 25.02.2012
http://primanota.ru/eva-cassidy/aint-no-sunshine-chords.htm
Привет, Гость.
Предлагаем пройти революционный курс по гитаре.
Подарок от PrimaNota.Ru, забирай!