PrimaNota.ru - самый крупный в мире бесплатный архив песенных текстов, аккордов, табулатур и нот


Europe - Hero - аккорды и текст, таба, видео

Регистрация Запомнить меня
Войти через:  Facebook Google Twitter Vk Yandex Mail.ru

Europe - Hero - аккорды и текст, таба, видео

Печатать
Просмотров: 388
Hero
Europe
Intro (acoustic Joey):
E------------------------------------|---(12)(10)-(5)(3)(2)---||
B----12-10---5--5--7~----8-7h8p7-----|----12--10---5--3--3----||
G--------------------------------9-7-|-------------------2----||
D------------------------------------|------------------------||
A------------------------------------|------------------------||
E------------------------------------|------------------------||
notes in brackets played by John

Verse (distortion):
E-------------------------------------------|----------------------------------|
B-------------------------------------------|----------------------------------|
G-4--4-------------------7--7---------------|-4--4-----------------------------|
D-4--4------4--4--5------7--7--------7--7---|-4--4------4--4--2--2--------2----|
A-2--2--x-x-4--4--5--x-x-5--5----x-x-7--7---|-2--2--x-x-4--4--2--2--------2----|
E-------x-x-4--4--5--x-x---------x-x-7--7---|-------x-x-4--4--2--2--------2----|

E-------------------------------------------||
B-------------------------------------------||
G-4--4-------------------7--7---------------||
D-4--4------4--4--5------7--7--------7--7---||
A-2--2--x-x-4--4--5--x-x-5--5----x-x-7--7---||
E-------x-x-4--4--5--x-x---------x-x-7--7---||

Pre-chorus:
E-----------------------------|-------------------------||
B-----------------------------|-------------------------||
G-----------------------------|-------------------------||
D-2---4---5--(7)--0-----7-----|-2---4---5-------7-------||
A-2---4---5--(7)--0-----7-----|-2---4---5-------7-------||
E-2---4---5--(7)--0-----7-----|-2---4---5-------7-------||
notes in brackets played only last time

Chorus:
E-------------|---------------|-------------|-------------------------|------||
B-------------|---------------|-------------|-------------------------|------||
G-------------|-4---4---------|-------------|-4---4-------------------|------||
D-0-----7-----|-4---4---5-----|-0-----7-----|-4---4---@---------------|-0----||
A-0-----7-----|-2---0---5-----|-0-----7-----|-2---0---5-4-0-5-4-0-2---|-0----||
E-0-----7-----|---------5-----|-0-----7-----|---------5-4-0-5-4-0-2---|-0----||
on last chorus play only G5

Solo (enhanced with harmony):
E---------------------------------|---------------------------------------|
B-------------------7-8-7h8p7-----|-------------------------7-8-7h8p7-----|
G-9--7--7b(9)~~---9-----------9-7-|-7b(9)~~---7b(9)-7~~---9-----------9-7-|
D---------------9-----------------|---------------------9-----------------|
A---------------------------------|---------------------------------------|
E---------------------------------|---------------------------------------|

E-----------------------------------------------|
B------8-10-8~~-----------8-10-11-10h11p10-8----|
G-10~~----------10p7-10~~--------------------10-|
D-----------------------------------------------|
A-----------------------------------------------|
E-----------------------------------------------|

E---------8------------------------------------------------|
B-8b(10)~~--(10)r(8)-6---6---6h8-6~~-8h10-11-10h11p10-8----|
G----------------------7---7----------------------------10-|
D----------------------------------------------------------|
A----------------------------------------------------------|
E----------------------------------------------------------|
hold bend--------| PM

E-----------15-14~~---------|-----------------------------------------||
B-8/10~~------------15~~-12-|-(12)~~----------10----------------------||
G---------------------------|--------14~~--------9b(11)r(9)p7---7~~---||
D---------------------------|---------------------------------9-------||
A---------------------------|-----------------------------------------||
E---------------------------|-----------------------------------------||
Добавлено: 20.09.2013
Другие материалы по этой песне:

Страница создана 21.02.2012
http://primanota.ru/europe/hero-chords.htm
Привет, Гость.
Предлагаем пройти революционный курс по гитаре.
Подарок от PrimaNota.Ru, забирай!