PrimaNota.ru - самый крупный в мире бесплатный архив песенных текстов, аккордов, табулатур и нот


Estas Tonne - The Winds That Bring You Home - таба, видео

Регистрация Запомнить меня
Войти через:  Facebook Google Twitter Vk Yandex Mail.ru

Estas Tonne - The Winds That Bring You Home - таба, видео

Печатать
Просмотров: 770
-------------------------------------------------------------------------------
                 The Winds That Bring You Home - Estas Tonne
-------------------------------------------------------------------------------
Tabbed by: DT/ADC
E-mail: dyra.thorvaldsson@gmail.com

Tuning: Standard EBGDAE

The song is in A minor. Chords backing melody listed above respective parts. Also, 
the melody is fluid, but separated bellow so you can see what chords match with 
what parts of the melody.


     A minor         A minor            G major      F major      E dominant 7

e|-----------0-------1-----1-1-1-------------3-3--------1------------0-------|
B|-0h1---0-1---1p0-----1-------------------1---------------------1-3---------|
G|-2---2-----------2-----2---------------2-----------------------------------|
D|---------------------------------------------------------------------------|
A|---------------------------------------------------------------------------|
E|---------------------------------------------------------------------------|


     A minor         A minor            G major      F major      E dominant 7

e|-----------0-------1-----1-1-1-------------3-3--------1--------3/5-5-4-4---|
B|-0h1---0-1---1p0-----1-------------------1---------------------------------|
G|-2---2-----------2-----2---------------2-----------------------------------|
D|---------------------------------------------------------------------------|
A|---------------------------------------------------------------------------|
E|---------------------------------------------------------------------------|

************************************
| / slide upwards
| h   hammer-on
| p   pull-off
************************************
Добавлено: 22.12.2015
Другие материалы по этой песне:
  • Аккорды и текст

Страница создана 22.12.2015
http://primanota.ru/estas-tonne/winds-that-bring-you-home-chords.htm
Привет, Гость.
Предлагаем пройти революционный курс по гитаре.
Подарок от PrimaNota.Ru, забирай!