PrimaNota.ru - самый крупный в мире бесплатный архив песенных текстов, аккордов, табулатур и нот


Escape The Fate - Lost In Darkness - текст песни, таба, бас-таба, видео

Регистрация Запомнить меня
Войти через:  Facebook Google Twitter Vk Yandex Mail.ru

Escape The Fate - Lost In Darkness - текст песни, таба, бас-таба, видео

Печатать
Просмотров: 529
-------------------------------------------------------------------------------
Lost in Darkness by Escape the Fate
-------------------------------------------------------------------------------
Tabbed by: laguna418
Email:laguna418@gmail.com

Tuning: Drop C

Solo

D|---------9~----------10------9~-----------9---------12-12b-10-9~-----------|
A|--7-9-10----10-9-7------10-7-------7-9-10---10-9-7-------------------------|
F----------------------------------------------------------------------------|
C|---------------------------------------------------------------------------|
G|---------------------------------------------------------------------------|
C|---------------------------------------------------------------------------|

D|---12b-12b-10-9-9-10p9-----------------------------------------------------|
A|-----------------------10~-7-10-12-12b-12b-10p7-9-12-9~--------------------|
F|---------------------------------------------------------------------------|
C|---------------------------------------------------------------------------|
G|---------------------------------------------------------------------------|
C|---------------------------------------------------------------------------|




************************************

| /   slide up
| \   slide down
| h   hammer-on
| p   pull-off
| ~   vibrato
| +   harmonic
| x   Mute note
| b   Bend
| pb  Pre-bend
| br  Bend release
| pbr Pre-bend release
| brb Bend release bend

************************************
Добавлено: 28.07.2012
Другие материалы по этой песне:

Страница создана 22.03.2012
http://primanota.ru/escape-the-fate/lost-in-darkness-chords.htm
Привет, Гость.
Предлагаем пройти революционный курс по гитаре.
Подарок от PrimaNota.Ru, забирай!