PrimaNota.ru - самый крупный в мире бесплатный архив песенных текстов, аккордов, табулатур и нот


Escape The Fate - Makeup - текст песни, таба, бас-таба, видео

Регистрация Запомнить меня
Войти через:  Facebook Google Twitter Vk Yandex Mail.ru

Escape The Fate - Makeup - текст песни, таба, бас-таба, видео

Печатать
Просмотров: 353
Artist: Escape the Fate
Song: Make Up
Tuning: Drop C - CGCFAd

INTRO
d|-------------------------------------|
A|-------------------------------------|
F|-------------------------------------|
C|-10101010-6666-5/66-1111111111111111-|(x3)
G|-10101010-6666-5/66-1111111111111111-|
C|-10101010-6666-5/66-1111111111111111-|

d|------------------------|
A|------------------------|
F|------------------------|
C|-10101010-6666-5/66-13~-|
G|-10101010-6666-5/66-13~-|
C|-10101010-6666-5/66-13~-|

VERSE guitar 1
d|--------------------------|
A|--------------------------|
F|--------------------------|
C|-1-------8-------6-------|(x2)
G|-1-(x32)-8-(x16)-6-(x16)-|
C|-1-------8-------6-------|
pm .        .       .

guitar 2 - played during 2nd time of VERSE guitar 1
d|-----------------|
A|-----------------|
F|-8-------3-------|
C|-x-(x32)-x-(x32)-|
G|-6-------1-------|
C|-----------------|

CHORUS
d|-----------------------------------------------------|
A|-----------------------------------------------------|
F|-----------------------------------------------------|
C|-10101010-6666-5/66-13131313131313131313131313131313-|(x2)
G|-10101010-6666-5/66-13131313131313131313131313131313-|
C|-10101010-6666-5/66-13131313131313131313131313131313-|

d|-----------------------------------------|
A|-----------------------------------------|
F|-----------------------------------------|
C|-10-10-10-10-6-6-6-6-13-13-13-13-8-8-6/8-|
G|-10-10-10-10-6-6-6-6-13-13-13-13-8-8-6/8-|
C|-10-10-10-10-6-6-6-6-13-13-13-13-8-8-6/8-|

d|------------------------|
A|------------------------|
F|------------------------|
C|-10-10-10-10-6-6-6-6-1~-|
G|-10-10-10-10-6-6-6-6-1~-|
C|-10-10-10-10-6-6-6-6-1~-|

Repeat VERSE
Repeat CHORUS

BRIDGE (not so sure about this part)
d|-----------------------------|
A|-----------------------------|
F|-----------------------------|
C|-10------6------13~13~-10~8~-|(x2)
G|-10-(x8)-6-(x8)-13~13~-10~8~-|
C|-10------6------13~13~-10~8~-|

i dont know this next part. sorry =/

CHORUS/OUTRO guitar 1
d|-----------------------------------------|
A|-----------------------------------------|
F|-----------------------------------------|
C|-10-10-10-10-6-6-6-6-13-13-13-13-8-8-6/8-|
G|-10-10-10-10-6-6-6-6-13-13-13-13-8-8-6/8-|
C|-10-10-10-10-6-6-6-6-13-13-13-13-8-8-6/8-|

d|-------------------------------------|
A|-------------------------------------|
F|-------------------------------------|
C|-10-10-10-10-6-6-6-6-1-1-1-1-1-1-1-1-|
G|-10-10-10-10-6-6-6-6-1-1-1-1-1-1-1-1-|
C|-10-10-10-10-6-6-6-6-1-1-1-1-1-1-1-1-|

d|-----------------------------------------|
A|-----------------------------------------|
F|-----------------------------------------|
C|-10-10-10-10-6-6-6-6-13-13-13-13-8-8-6/8-|
G|-10-10-10-10-6-6-6-6-13-13-13-13-8-8-6/8-|
C|-10-10-10-10-6-6-6-6-13-13-13-13-8-8-6/8-|


d|------------------------|
A|------------------------|
F|------------------------|
C|-10-10-10-10-6-6-6-6-1~-|
G|-10-10-10-10-6-6-6-6-1~-|
C|-10-10-10-10-6-6-6-6-1~-|


guitar 2
d|-13~-11~-10~-20~~-(x3)---13~-11~-20~~~-|
A|---------------------------------------|
F|---------------------------------------|
C|---------------------------------------|
G|---------------------------------------|
C|---------------------------------------|

Добавлено: 14.07.2012
Другие материалы по этой песне:

Страница создана 16.03.2012
http://primanota.ru/escape-the-fate/make-up-chords.htm
Привет, Гость.
Предлагаем пройти революционный курс по гитаре.
Подарок от PrimaNota.Ru, забирай!