PrimaNota.ru - самый крупный в мире бесплатный архив песенных текстов, аккордов, табулатур и нот


Escape The Fate - Massacre - текст песни, таба, бас-таба, видео

Регистрация Запомнить меня
Войти через:  Facebook Google Twitter Vk Yandex Mail.ru

Escape The Fate - Massacre - текст песни, таба, бас-таба, видео

Печатать
Просмотров: 313
Massacre Tab
by RC.
Any concerns msg me on YT or email/msn raysays34@hotmail.com.

Massacre Solo Cover:
http://www.youtube.com/watch?v=1eCjYwcCJ4E

*IMPORTANT*
Drop C Tuning was used for this tab. the song is meant to be in drop A or something 
play accordingly ;)

~SOLO~

D|--------------------------------------------------|
A|--12--10------12--10------------------------------|
F|----------11----------11--14--12--11--14--12--11--|
C|--------------------------------------------------|
G|--------------------------------------------------|
C|--------------------------------------------------|

D|------------------------------------------------|
A|--12--10------12--10------12p10h12--15--14--12--|
F|----------11----------11------------------------|
C|------------------------------------------------|
G|------------------------------------------------|
C|------------------------------------------------|

D|------------------------------------------------------|
A|------------------------------------------------------|
F|--14--12--11--14--12--11--14--12--11--14--12--11--12--|
C|------------------------------------------------------|
G|------------------------------------------------------|
C|------------------------------------------------------|

D|---------------------------------------11--12--13--14--|
A|---------------------------10--11--12------------------|
F|---------9--11--9--10--11------------------------------|
C|--9--12------------------------------------------------|
G|-------------------------------------------------------|
C|-------------------------------------------------------|

D|--14--12--10-------------------------------------|
A|--------------12--12--15--14--12--10--10--14~~~--|BEND!!
F|-------------------------------------------------|
C|-------------------------------------------------|
G|-------------------------------------------------|
C|-------------------------------------------------|


D|-----------------------------------|
A|--14b15--14--------------------17--|b*
F|-------------14--16----14h16-------|
C|-----------------------------------|
G|-----------------------------------|
C|-----------------------------------|

D|------------------------------------------|
A|--12--14--15--14--12------15--14--12------|
F|----------------------14--------------11--|
C|------------------------------------------|
G|------------------------------------------|
C|------------------------------------------|

D|----------13--14--15/17--|b
A|-/12-/12-----------------|
F|-------------------------|
C|-------------------------|
G|-------------------------|
C|-------------------------|

D|----------------------------------|
A|--18--19--18----------15--17--17--|b*
F|--------------19--16--------------|
C|----------------------------------|
G|----------------------------------|
C|----------------------------------|

D|-----------------19--|
A|--14--7--14--15------|
F|---------------------|  Tremolo picked...
C|---------------------|
G|---------------------|
C|---------------------|

http://www.youtube.com/watch?v=1eCjYwcCJ4E
Добавлено: 17.04.2012
Другие материалы по этой песне:

Страница создана 10.03.2012
http://primanota.ru/escape-the-fate/massacre-chords.htm
Привет, Гость.
Предлагаем пройти революционный курс по гитаре.
Подарок от PrimaNota.Ru, забирай!