PrimaNota.ru - самый крупный в мире бесплатный архив песенных текстов, аккордов, табулатур и нот


Eric Johnson - The Fine Art Guitar Example 17 - таба, видео

Регистрация Запомнить меня
Войти через:  Facebook Google Twitter Vk Yandex Mail.ru

Eric Johnson - The Fine Art Guitar Example 17 - таба, видео

Печатать
Просмотров: 88
-------------------------------------------------------------------------------
               The Fine Art of Guitar, Example 17 - Eric Johnson
-------------------------------------------------------------------------------
Tabbed by: InsidiousKoalas
E-mail: 

Tuning: Standard

I have tabbed out the 17th example on Eric Johnson's "The Fine Art of Guitar,"
roughly 26:40 minutes into the video. I recommend watching the video to get the 
timing down as well as the quick bending off the pull offs. The timing is relative. 

Key of E
    Q    S S  E.     Q    S S  E.      Q   S S  E.    H   
e|--------------------------------------------------------------------------|
B|--------------------------------------------------------------------------|
G|--11T--9b11r9-------------------------------------------------------------|
D|-----------------11T----9b11r9--------------------------------------------|
A|-------------------------------------11T--9b11r9--------------------------|
E|---------------------------------------------------12---------------------|

    Q     Q    S  S  E.   Q    S  S  E.  Q
e|--12----------------------------------------------------------------------|
B|-------16T--14b16r14------------------------------------------------------|
G|-----------------------16T--13b14r13--------------------------------------|
D|---------------------------------------16---------------------------------|
A|--------------------------------------------------------------------------|
E|--------------------------------------------------------------------------|
   
    Q  Q  Q  Q  Q  Q  Q  Q  Q  Q   S S E. Q   S S E.    Q   H.
e|--------------------------------------------------------------------------|
B|--------5-----------------------------------------------------------------|
G|-----------8T-6-----------------------------------------------------------| 
D|-----6-----------9T-------9-----------------------------------------------|    
A|--4--------------------7-----9T--7b9r7--------------------2~~~~~~~~~------|
E|--------------------5--------------------9T--7b9r7~~~~p0~~~~~~~~~~~~------|
    C#min             Asus2                             E5



************************************

| /   slide up
| \   slide down
| h   hammer-on
| p   pull-off
| ~   vibrato
| +   harmonic
| x   Mute note
| b   Bend
| pb  Pre-bend
| r  Bend release
| pbr Pre-bend release
| brb Bend release bend
| T   Tapped note
| ~~  Hold note

Directly underneath the tab for each bar is the corresponding chord, if there is one
Timing - Directly above notes on tab

|S    Sixteenth
|E    Eighth note
|Q    Quarter note
|H    Half note
|W    Whole note
|.    The value of the original duration plus half of the original duration

************************************
Добавлено: 05.11.2015
Другие материалы по этой песне:
  • Аккорды и текст

Страница создана 05.11.2015
http://primanota.ru/eric-johnson/fine-art-guitar-example-17-chords.htm
Привет, Гость.
Предлагаем пройти революционный курс по гитаре.
Подарок от PrimaNota.Ru, забирай!