PrimaNota.ru - самый крупный в мире бесплатный архив песенных текстов, аккордов, табулатур и нот


Eric Johnson - Lonely In The Night - таба, видео

Регистрация Запомнить меня
Войти через:  Facebook Google Twitter Vk Yandex Mail.ru

Eric Johnson - Lonely In The Night - таба, видео

Печатать
Просмотров: 191
Авторы музыки: Vince Mariani
Авторы текста: Vince Mariani
“Lonely In The Night”
Artist:Eric Johnson

Tabbed by:Brad Chamberlain
I never have heard of Eric Johnson until now.  I HAD to learn his
music because it is true and original.  It took me a while to start tabbing out his 
Enjoy.

Intro:(Keyboard)
e|-3--3--1--1--3--3--1--1--3--3--1--1--3--3--1--1-|
B|------------------------------------------------| Repeat
G|-3--3--1--1--0--0--1--1--3--3--1--1--0--0--1--1-| through out
D|-5--5--3--3--1--1--3--3--5--5--3--3--1--1--3--3-| the song.
A|------------------------------------------------|
E|------------------------------------------------|

Guitar Intro:(Clean)
e|--------------------3----------------1-|
B|-1----------------4--------------------|
G|----------------3----------------------|
D|------------5-6------------------------|
A|---------------------------------------|
E|---------------------------------------|

Chorus:(Clean)
e|------------6----------4----------4----------6----------4-|
B|-6--------------------------------------------------------|
G|------------8----------6----------8---------------------6-|
D|-10------------------------------------------8------------|
A|----------------------------------------------------------|
E|----------------------------------------------------------|

e|-6---------8----------4----------3-|
B|-----------6-----------------------|
G|-8--------------------6------------| End Chorus
D|---------------------------------8-|
A|-----------------------------------|
E|-----------------------------------|

Solo:(Distorted guitar)
e|-----------8/9\8-------------------------------------------11-|
B|------------------11\8--------------------------9-11-13/14----|
G|-10---------------------10--8--10----8-------10---------------|
D|-10----10------------------------------10-11------------------|
A|--------------------------------------------------------------|
E|--------------------------------------------------------------|

e|-13-16b--------------------------------------------------------|
B|---------------9-11------------------------14\13\11------------|
G|-----------8--------10---8---10---------13-----------12--------|
D|---------8---8---------8---8------10-11-----------------13-15--|
A|---------------------------------------------------------------|
E|---------------------------------------------------------------|

e|----------------------13-------------------------------------|
B|----------------13-16----13----------------------------------|
G|-------13-15-15-------------15-13----15-13-------------13----|
D|-13-15----------------------------15-------15-13----13----15-|
A|-------------------------------------------------15----------|
E|-------------------------------------------------------------|

e|---------------------------------------------------------------|
B|------------------------------------------------------13-------|
G|---------------------------------------------------------13-15-|
D|-13-------15-13------------------------------------15----------|
A|----15-13-------15-13-11------------------11-13-15-------------|
E|-------------------------13-11-----13--------------------------|

e|-------------------------18-16-15---------------------------16-|
B|-16-18----16-------16-18----------18-16----16-18---------------|
G|-------------17/18----------------------17-------15-13---------|
D|-------------------------------------------------------15------|
A|---------------------------------------------------------------|
E|---------------------------------------------------------------|

e|---------------------------------------------------------------|
B|-13---------------16-13-----------------------------16b--16----|
G|----15-13----15b--------15-13-15-13-------------------------15-|
D|----------15------------------------15-13----------------------|
A|------------------------------------------15-13\11-------------|
E|---------------------------------------------------------------|

e|-----------9-8------------------------------------13----------|
B|---------9-----11-9-8-------------------13--16b------16-13----|
G|-13-------------------10-8---------------------------------15-|
D|---------------------------8-10-------------------------------|
A|--------------------------------------------------------------|
E|--------------------------------11----------------------------|


e|--------------------------------------------------------------|
B|-16-13-----16-13-------------16b---13/14-16---13--------------|
G|-------15b-------15-13-----------------------------15-13------|
D|-----------------------15-------------------------------------|
A|--------------------------------------------------------------|
E|--------------------------13----------------------------------|

e|---------------------------------------11--13-----------------|
B|-------8-9-8---------------------13-14-----------13b-13\11-9--|
G|----10-------10-8------------10---------------10--------------|
D|-10----------------10-----------------------------------------|
A|--------------------------------------------------------------|
E|--------------------------------------------------------------|

e|-----------------------13------------------------------|
B|-9~------------------------13-11-----11/13-------------|
G|---------------------------------13--------12b--12--10-| End
D|-------------------------------------------------------| Solo
A|-------------------------------------------------------|
E|-------------------------------------------------------|

After Solo go back to Chorus.  The Outro Solo is just too long and hard for me to figure 
Sorry.
Добавлено: 20.06.2012
Другие материалы по этой песне:

Страница создана 07.04.2012
http://primanota.ru/eric-johnson/lonely-in-the-night-chords.htm
Привет, Гость.
Предлагаем пройти революционный курс по гитаре.
Подарок от PrimaNota.Ru, забирай!