PrimaNota.ru - самый крупный в мире бесплатный архив песенных текстов, аккордов, табулатур и нот


Eric Johnson - Song For George - аккорды и текст, таба, видео

Регистрация Запомнить меня
Войти через:  Facebook Google Twitter Vk Yandex Mail.ru

Eric Johnson - Song For George - аккорды и текст, таба, видео

Печатать
Просмотров: 195
Song For George
Eric Johnson
		   This is Eric johnsons "song for george". Hope you like it
I would recommend having a copy of this song to play along with to make it easier to learn. Also, for best sound use an acoustic steel string guitar
my notation for this tab is:

s-slide
h-hammer on
p-pulloff
 12>-harmonic
b-bend 1/2 step
*-play from 1st star
Timing is 4/4

Tuning for this song is:

D
B
G
D
A
D

      Let ring                      b
D|-0----------|--------10--- 12>---|3---0--0------------|-----0-------------------|
B|-3----------|*---8s10------------|-------------1------|-------------------------|*
G|-0-h-2------|--------------------|---------2p0--------|-2--------------- 7>-----|
D|-0----------|----0-------------0-|----0--------2------|-0-------0----0-- 7>----0|
A|-0----------|*-------------------|--------------------|--------0-0-2-------0h3--|*
D|-0----------|-0---------0--------|0------0------------|---0---3-------0---------|

                b                      b
D|---------0----3-0--------|-------7---3-0-----------|--------10------- 12>----|
B|--1----------------------|-----6-------------------|--8s10-------------------|
G|----0---------0-0--0-----|-5s7----------2-0-0h2----|-------------------------|
D|--3--------3-------------|----------------------3-0|--0--------------------0-|
A|-----------------------3-|-------------------------|-------------------------|
D|3-----3--------------5---|-------------------------|0-----------0------------|

   b
D|-3-0--0------------------|-----0-------------------|-12h10------7--6--5------|
B|--------------1----------|-------------------------|------10----7--6--5------|
G|---------2p0-------------|-2-------------------- 7>|------11-----------------|
D|---0----------2----------|-0--------0------0---- 7>|----------0--------------|
A|-------------------------|---------0--0-2----------|-0-----------------------|
D|-0----0------------------|---0---3-----------0-----|-------------------------|


D|---0------0--------------|-10----0----7--6--5------|-------10------- 12>-----|
B|-0--5h6p5----------------|------------7--6--5------|*-8s10-------------------|
G|------------0------------|----10-------------------|-------------------------|
D|--------------7----------|----------7-------------0|--0--------------------0-|
A|-------------------------|--------------------0h3--|*------------------------|
D|-------------------------|-------------------------|0----------0-------------|

   b                                                                 b
D|-3-0--0------------------|----0----------------------|---------0---3-0---------|
B|-------------1-----------|--------------------------*|---1---------------------|
G|--------2p0---------2----|------------------ 7>------|-----0-------0-0--0------|
D|---0---------2------0----|---------0-----0-- 7>-----0|---3-------3-------------|
A|-------------------------|-------0---0-2--------0h3-*|-----------------------3-|
D|-0----0------------------|--0--3-----------0---------|-3-----3-------------5---|

            b                                         b
D|-------7--3-0------------|-------10---- 12>--------|3-0--0-------------------|
B|-----6---------2-0-0h2---|--8s10-------------------|-----------1-------------|
G|-5s7------------------3-0|-------------------------|-------2p0-------2-------|
D|-------------------------|--0----------------0-----|--0--------2-----0-------|
A|-------------------------|-------------------------|-------------------------|
D|-------------------------|0----------0-------------|0----0-------------------|



D|---0---------------------|12p10-------7--6--5------|---0-------0-------------|
B|-------------------------|-----10-----7--6--5------|-0---5h6p5---------------|
G|-------------------- 7>--|-----11------------------|-------------0-----------|
D|--------0-----0----- 7>--|---------0---------------|---------------7---------|
A|------0---0-2------------|0------------------------|-------------------------|
D|0---3-----------0--------|-------------------------|-------------------------|


D|10---0------7--6--5------|-7--10p7---10--10-10------|7--10h7---10-10--7-------|
B|------------7--6--5------|*7--10p7---10--10-10------|7--10h7---10-10--7-------|
G|--10---------------------|--------------------------|-------------------------|
D|--------7----------------|--------0-----------------|-------0-----------------|
A|-------------------------|*-------------------------|-------------------------|
D|-------------------------|-0------------------------|0------------------------|

                                       b
D|5----5---5-----5-7-------|--------0--3-0-----------|------7---3--0-----------|
B|-6----6---6--6----6-----*|--1----------------------|----6--------------------|
G|--7----7---7-------7-5---|----0------0-0--0--------|5s7------------2-0-0h2---|
D|0-----0------------------|--3------3---------------|----------------------3-0|
A|------------------------*|-----------------------3-|-------------------------|
D|-------------------------|3-----3-------------5----|-------------------------|



D|------10-------- 12>-----|3--0-0-------------------|---0---------------------|
B|--8s10-------------------|------------1------------|-------------------------|
G|-------------------------|-------2p0---------2-----|------------------- 7>---|
D|--0-------------------0--|---0--------2------0-----|---------0-----0--- 7>---|
A|-------------------------|-------------------------|-------0---0-2-----------|      D|0-----------0------------|0----0-------------------|0-----3----------0-------|


D|12p10-------77--6--5-----|--0-------0--------------|10----0----77--6--5------|
B|-----10-----77--6--5-----|-0--5h6p5----------------|-----------77--6--5------|
G|-----11------------------|-------------0-----------|---10--------------------|
D|---------0---------------|----------------7--------|--------7----------------|
A|0------------------------|-------------------------|-------------------------|
D|-------------------------|-------------------------|-------------------------|

                                                                 b
D|--0----------------------|--0----------------------|-------0---3-0-----------|
B|*------------------------|----------1--3---3------*|--1----------------------|
G|------------2p0----------|----------0--0---2-------|----0------0-0-0---------|
D|--0---0---3-----3-----0--|--0---0----------0----0--|--3------3---------------|
A|*---3----------3----3----|----3----------0---0h3--*|----------------------3--|
D|0-------0---------0------|0-------0----------------|3-----3------------5-----|


            b                                         b
D|-------7--3--0-----------|-------10----- 12>-------|3--0-0-------------------|
B|-----6-------------------|---8s10------------------|-----------1-------------|
G|-5s7-----------2-0-0h2---|-------------------------|-------2p0--------2------|
D|----------------------3-0|---0----------------0----|---0-------2------0------|
A|-------------------------|-------------------------|-------------------------|
D|-------------------------|0---------0--------------|0----0-------------------|


D|---0---------------------|-^--0---------------------|
B|-------------------------|-^--2---------------------|
G|-------------------------|-^--0-h-2-----------------|
D|-------0-----0-----------|-^--0---------------------|
A|------0--0-2-------------|-^--0---------------------|
D|-0--3----------0---------|-^--0---------------------|



This should be exactly right because i learnt it out of a Guitar world magazine. if you find an error email and ill fix it up straight away. Also if u have any comments email me.
gazz_71@hotmail.com     
Добавлено: 02.06.2013
Другие материалы по этой песне:

Страница создана 24.02.2012
http://primanota.ru/eric-johnson/song-for-george-chords.htm
Привет, Гость.
Предлагаем пройти революционный курс по гитаре.
Подарок от PrimaNota.Ru, забирай!