PrimaNota.ru - самый крупный в мире бесплатный архив песенных текстов, аккордов, табулатур и нот


Eric Johnson - Cliffs Of Dover Live - таба, видео

Регистрация Запомнить меня
Войти через:  Facebook Google Twitter Vk Yandex Mail.ru

Eric Johnson - Cliffs Of Dover Live - таба, видео

Печатать
Просмотров: 152
Fixed up some parts

----------------3~----------------------------------------------------|
-----------3~---3~--3---1~--/12--10---15---13--12---8------3----------|
-------3h4--------------0~------------12-------------------0----------|
-----5----------5~-------------------------14--12-----10--------------|
-5-5----------------5---3~--/10---9---14-------10---7------2----------|
--------------------------------------------------------------3-------|

------------------10-12--------------------3--19-17--------5~------|
-12--8-10-12-13-----------8~----------3-------------15-----3~------|
------------------12-12--------11--9--5----------------17--5~------|
-------------------9-10--10~----------5-5------------------5~------|
-10--7-9--10-12-----------7~---12-10-----------------------3~------|
-------------------------------------------------------------------|

-10------10-10-10p8-10p8-------------------------------17-17p15-15-----------------------|
------11------------------11----------10-10-10---------------------6----------1--0-------|
--------------------------------12-12---------------15---------------8-7-5-7--0--0-------|
-------------------------------------------------------------------8----------------/5~--|
----8--------------------------------------------13----------------6----------3----------|
-----------------------------10--------------------------------------------------3-------|

---------8-12~--10------------------10--------------------------|
------10-----------13-12b12.5r12-13----13b15~-------------------|
----9-----------------------------------------------------------|
-10-------------------------------------------------------------|
----------------------------------------------3--5/7p-5--(17)---|
----------------------------------------------------------------|

-----7-8~p7--------------------------------------------------10-10-14~-|
---8--------10-8\6-10p8-8~-------13-12b13r12-13--------12-13-----------|
-7-------------------------10-12---------------------------------------|
----------------------------------------------------12-----------------|
-------------------------------------------------10--------------------|
-----------------------------------------------------------------------|

----------14-15-[15]~-------14-15~-14---------------------------|
-------15----------------15-----------17--15-17--15-------------|
----14----------------14----------------------------14\12-12~---|
-12-------------------------------------------------------------|
----------------------------------------------------------------|
----------------------------------------------------------------|

-------------------12-15-----------------12-14-17--15p14-15~---|
----------------13----------------13-15------------------------|
-------------12------------------------------------------------|
----------14-------------------14------------------------------|
-------15-------------------12---------------------------------|
-12-15---------------------------------------------------------|


----------12---------------------------------------|
---15b17~----15----12-15-13-15-12-13-10-12---10~---|
----------------14-------------------------9-------|
---------------------------------------------------|
---------------------------------------------------|
-0-------------------------------------------------|

---5-8-7-5------------------------------------------------------------|
-8---------8---5-8---5-7---5~--3-5-0----------------------------------|
-------------7-----7-----4-----------2-0---2-0------------------------|
-----------------------------------------2-----2-0---2-0---------2~---|
---------------------------------------------------2-----2-0----------|
-------------------------------------------------------------3-0------|


--------------------------------10-12----10---------------------|
----------------8-10---10-12-13-------13----12-13-10-12---10~---|
--------------9------9----------------------------------9-------|
---------7-10---------------------------------------------------|
----7-10--------------------------------------------------------|
-/8-------------------------------------------------------------|

------------------------------10-12~-10-12-10-14~---|
---------10-13----10-13-12-13-----------------------|
12p11-12-------12-----------------------------------|
----------------------------------------------------|
----------------------------------------------------|
----------------------------------------------------|


-12----12-14-15-14p12----14-12----------14-12------------------------|
----15----------------15-------15-12----------15-12----15p12-15-17---|
-------------------------------------14-------------14---------------|
---------------------------------------------------------------------|
---------------------------------------------------------------------|
---------------------------------------------------------------------|

----------------------------------------------------------------|
-15-12-15-12----------------------------------------------------|
-------------14-12----14-12-------------------------------------|
-------------------14-------14-12-------14-12-------------14~---|
----------------------------------14-12-------14-12-------------|
----------------------------------------------------15-12-------|

----------------------------------------------------15-19-------|
--------------------------------------15-17---15-17-------17~---|
-----------------------------------16------16-------------------|
--------------14----16p14-17-16-17------------------------------|
-----14-17-14----17---------------------------------------------|
-/15------------------------------------------------------------|


---------------------------------8-11-----------------13-16~-13-17~---|
----------------8-10--8-7-x-7-10-------15-13----13-15-----------------|
--------------9------------------------------16-----------------------|
---------7-10---------------------------------------------------------|
----7-10--------------------------------------------------------------|
-/8-------------------------------------------------------------------|

-19-20-19--17-------------------7-11~--7-----------------------|
--------------19-17-19\----7-10----------7---10-7--------------|
-------------------------9-----------------9-------9-8---8~----|
-------------------------------------------------------9-------|
---------------------------------------------------------------|
---------------------------------------------------------------|


--------7-9----7--------------0--2----------------------------|
---7-10-----10---9-10-7-9---7------2--------------------------|
-9------------------------6----------4-2---4-2----------------|
-----------------------------------------4-----4-2------------|
---------------------------------------------------4-2---2~---|
-------------------------------------------------------5------|


------------------------------9~---|
------------5~--7-----------7------|
----------4-------9-8b9r8-9--------|
-----4~-7--------------------------|
-4/6-------------------------------|
-----------------------------------|




--------------14-17~---------------------16-19~---|
-----------15------------------16-----17----------|
--------14----------------------------------------|
-14-------------------16----16-----19-------------|
----12-------------------14-----------------------|
--------------------------------------------------|

-15--15----15-17-19-17-15----17-15-------------------------17-15-------|
--------17----------------19-------19-15----19-15----15-19-------19-15-|
-----------------------------------------17-------17-------------------|
-----------------------------------------------------------------------|
-----------------------------------------------------------------------|
-----------------------------------------------------------------------|

----------------------------------------------------|
----17-15-------------------------------------------|
-17-------17-14--16-14----------16-14---------------|
------------------------17-14----------17-14--------|
------------------------------17-------------17-----|
------------------------------------------------0---|


---------12----15b18~-15----14----------14----------|
-15b17~-----15-----------17----15-17----------17~---|
-------------------------------------16----16-------|
----------------------------------------------------|
----------------------------------------------------|
----------------------------------------------------|


---------------------------------|
------------------------7-8-10~--|
--------------------7-9----------|
------------7--9-10--------------|
-------7-10----------------------|
-/8-10---------------------------|


-----------------------17--------------------------|
----------10~-------19----19-19b20~-20-19----17~---|
-------11------------------------------------------|
----10-----------19-----------------------21-------|
--------------17-----------------------------------|
-10------------------------------------------------|


-----------------------------------------------15-19--------|
------------------8-7b8r7-8-10--/15b16~--17-17-------[17]~--|
----------------9-------------------------------------------|
----------5h7/9---------------------------------------------|
------5-7---------------------------------------------------|
-/5-7-------------------------------------------------------|
Добавлено: 13.06.2012
Другие материалы по этой песне:
  • Аккорды и текст

Страница создана 13.06.2012
http://primanota.ru/eric-johnson/cliffs-of-dover-live-chords.htm
Привет, Гость.
Предлагаем пройти революционный курс по гитаре.
Подарок от PrimaNota.Ru, забирай!