PrimaNota.ru - самый крупный в мире бесплатный архив песенных текстов, аккордов, табулатур и нот


Эпидемия - Эпилог - аккорды и текст, видео

Регистрация Запомнить меня
Войти через:  Facebook Google Twitter Vk Yandex Mail.ru

Эпидемия - Эпилог - аккорды и текст, видео

Печатать
Просмотров: 1006
Уроки эстрадного вокала в Санкт-Петербурге
Авторы музыки: Юрий "Juron" Мелисов

Эпилог
Эпидемия
Gtr I - Acoustic G
 Eb|-----4--6-7-6-4-|-2---2-----6-|-4---4---------|-----------|
 Bb|---4------------|---2---2-7---|---0---0-5-4-2-|-----------|
 Gb|----------------|-------------|---------------|-3--4-3----| 
 Db|----------------|-------------|---------------|-----------|
 Ab|----------------|---------6---|---------4-----|-----------|
 Eb|-4--------0-----|-2-----------|-0-------------|-2---------|

 Eb|-----4-6-7---6-4-|-2---2------6--|-4---4-----------|------|
 B |---4-------------|---2---2-7-----|---0---0-5---4-2-|------|
 Bb|-4---------------|---------------|-----------------|-3----|
 Db|-----------------|---------------|-----------------|------|
 Ab|-----------------|---------6-----|---------4-------|------|
 Eb|-4-------0-------|-2-------------|-0---------------|-2----|

 Gtr. II - Dist. 

 Eb|-----------------|-----------------|-----------------|--------------------|
 B |-----------------|-----------------|-----------------|--------------------|
 Bb|-----------------|-----------------|-----------------|--------------------|
 Db|-----------------|-----------------|-----------------|-8-----8-----8------|
 Ab|-6-----6-----6---|-2-----2-----2---|-4-----4-----4---|-6-6-6-6-6-6-6-6----|
 Eb|-4-4-4-4-4-4-4-4-|-0-0-0-0-0-0-0-0-|-2-2-2-2-2-2-2-2-|--------------------|
     p.m.  p.m.  p.m.  p.m.  p.m.  p.m.  p.m.  p.m.  p.m.  p.m.  p.m.  p.m. 

 Eb|-----------------|-----------------|--------------------|
 B |-----------------|-----------------|--------------------|
 Bb|-----------------|-----------------|--------------------|
 Db|-----------------|-6-----6-----6---|--------------------|
 Ab|-2-----2-----2---|-4-4-4-4-4-4-4-4-|-4-----4-----4------|
 Eb|-0-0-0-0-0-0-0-0-|-----------------|-2-2-2-2-2-2-2-2----|
     p.m.  p.m.  p.m.  p.m.  p.m.  p.m.  p.m.  p.m.  p.m.  
Добавлено: 29.04.2012
Другие материалы по этой песне:

Страница создана 29.04.2012
http://primanota.ru/epidemiya/epilog-chords.htm
Привет, Гость.
Предлагаем пройти революционный курс по гитаре.
Подарок от PrimaNota.Ru, забирай!