PrimaNota.ru - самый крупный в мире бесплатный архив песенных текстов, аккордов, табулатур и нот


Epica - Victims Of Contingency - бас-таба, видео

Регистрация Запомнить меня
Войти через:  Facebook Google Twitter Vk Yandex Mail.ru

Epica - Victims Of Contingency - бас-таба, видео

Печатать
Просмотров: 43
Авторы музыки: Simone Simons, Rob van der Loo, Joost van den Broek, Ariën van Weesenbeek, Sascha Paeth, Isaac Delahaye, Coen Janssen, Frank Schiphorst, Jack Driessen
Авторы текста: Mark Jansen
0:08
G|---------------------------------------------------------------------------------------------------|
D|o-------------------------------------------------------------------------------------------------o|
A|---------------------------------------------------------------------------------------------------|
E|o-----------------------------------------------------------------------------------------7-------o|
B|--0000-000-000----000000000-------0000-000-000----0000-000-000----000000000---0-0------------------|
    1 e + a 2 e + a 3 e + a 4 e + a 1 e + a 2 e + a 3 e + a 4 e + a 1 e + a 2 e + a 3 e + a 4 e + a 

G|-------------------------------------------------------------------------------------------------|
D|-------------------------------------------------------------------------------------------------|
A|-------------------------------------------------3-3-2-2-----------------------------------------|
E|-------------------7---7---7-------------2-2-2-2---------3-3-------------3-3-3-3-----------------|
B|-000000000---0-0-----------------0-0-0-0---------------------3-3-1-1-1-1---------3-3-3-3-3-3-3-3-|
   1 e + a 2 e + a 3 e + a 4 e + a 1 e + a 2 e + a 3 e + a 4 e + a 1 e + a 2 e + a 3 e + a 4 e + a 

G|-----------------------------------------------------------------|
D|-----------------------------------------------------------------|
A|-----------------------------------------------------------------|
E|-----------------------------------------------------------------|
B|-0000-000-000----000000000-------0000-000-000----0000-000-000----|
   1 e + a 2 e + a 3 e + a 4 e + a 1 e + a 2 e + a 3 e + a 4 e + a 

G|-----------------------------------------------------------------|
D|-----------------------------------------------------------------|
A|-----------------3-3-2-2-----------------------------------------|
E|---------3-3-3-3---------3-3-------------3-3-3-3-----------------|
B|-0-0-0-0---------------------3-3-1-1-1-1---------2-2-2-2-2-2-2-2-|
   1 e + a 2 e + a 3 e + a 4 e + a 1 e + a 2 e + a 3 e + a 4 e + a 

G|-------------------------------------------------------------------------------------------------|
D|-------------------------------------------------------------------------------------------------|
A|-------------------------------------------------------------------------------------------------|
E|---------------------------------------------------------7---------------------------------------|
B|-000-000-0-000---00000-0-0-------000-000-0-000-0-0---------------0-r-----------------3---2---1---|
   1 e + a 2 e + a 3 e + a 4 e + a 1 e + a 2 e + a 3 e + a 4 e + a 1 e + a 2 e + a 3 e + a 4 e + a  


Verse 0:45 x2
G|-------------------------------------------------------------------------------------------------------|
D|-------------------------------------------------------------------------------------------------------|
A|-------------------------------------------------------------------------------------------------------|
E|-7-----9-----10---12---10---12---10---9-----10-----9---7-7-7---7-7-7---5-5-5---5-5-5-------------------|
B|---0-0---0-0----0----0----0----0----0---0-0----0-0---0---------------------------------5-0-3-0-3-0-2-0-|
   1 e + a 2 e +  a 3  e +  a 4  e +  a 1 e + a  2 e + a 3 e + a 4 e + a 1 e + a 2 e + a 3 e + a 4 e + a 

Pre Chorus 0:58
G|--------------------------------------------------------------------|
D|--------------------------------------------------------------------|
A|----------------------------------------------------8-8-8-8-7-------|
E|-7-7-7-7-7-7-7-7-9-9-9-10-10-10-9-9-9-9-9-8-8-8-9-9-----------------|
B|--------------------------------------------------------------------|
   1 e + a 2 e + a 3 e + a  4  e  + a 1 e + a 2 e + a 3 e + a 4 e + a 

Chorus 1:03
G|-----------------------------------------------------------------|
D|-----------------------------------------------------------------|
A|-----------------------------------------------------------------|
E|-0-0-0-0-0-0-0-0-0-0-0-0-0-0-3-3-0-0-0-0-0-0-0-0-2-2-2-2-3-3-3-3-|
B|-----------------------------------------------------------------|
   1 e + a 2 e + a 3 e + a 4 e + a 1 e + a 2 e + a 3 e + a 4 e + a 

G|-----------------------------------------------------------------|
D|---------------------------------5---4---------------------------|
A|-----------------------------------------5---3---5---------------|
E|-----------------------------------------------------0-2---0-----|
B|-1-1-1-1-1-1-1-1-1-1-1-1-1-1-1-1-----------------------------3---|
   1 e + a 2 e + a 3 e + a 4 e + a 1 e + a 2 e + a 3 e + a 4 e + a 

G|-----------------------------------------------------------------|
D|-----------------------------------------------------------------|
A|-----------------------------------------------------------------|
E|-0-0-0-0-0-0-0-0-0-0-0-0-0-0-3-3-0-0-0-0-0-0-0-0-2-2-2-2-3-3-3-3-|
B|-----------------------------------------------------------------|
   1 e + a 2 e + a 3 e + a 4 e + a 1 e + a 2 e + a 3 e + a 4 e + a 

G|------------------------------------------------------------------------------------------------|
D|---------------------------------5---4----------------------------------------------------------|
A|-----------------------------------------5---3---5---3------------------------------------------|
E|---------------------------------------------------------5---0---2---------------2---2---2---2--|
B|-1-1-1-1-1-1-1-1-1-1-1-1-1-1-1-1----------------------------------------------------------------|
   1 e + a 2 e + a 3 e + a 4 e + a 1 e + a 2 e + a 3 e + a 4 e + a 1 e + a 2 e + a 3 e + a 4 e + a 

Verse 1:23 x2
G|-------------------------------------------------------------------------------------------------------|
D|-------------------------------------------------------------------------------------------------------|
A|-------------------------------------------------------------------------------------------------------|
E|-7-----9-----10---12---10---12---10---9-----10-----9---7-7-7---7-7-7---5-5-5---5-5-5-------------------|
B|---0-0---0-0----0----0----0----0----0---0-0----0-0---0---------------------------------5-0-3-0-3-0-2-0-|
   1 e + a 2 e +  a 3  e +  a 4  e +  a 1 e + a  2 e + a 3 e + a 4 e + a 1 e + a 2 e + a 3 e + a 4 e + a 

Pre Chorus1:38
G|----------------------------------------------------------------------------------------------------|
D|----------------------------------------------------------------------------------------------------|
A|----------------------------------------------------8-8-8-8-7---------------------------------------|
E|-7-7-7-7-7-7-7-7-9-9-9-10-10-10-9-9-9-9-9-8-8-8-9-9-----------------0-0-8-0-0-8-0-0-8-0-3---2---1---|
B|----------------------------------------------------------------------------------------------------|
   1 e + a 2 e + a 3 e + a  4  e  + a 1 e + a 2 e + a 3 e + a 4 e + a 1 e + a 2 e + a 3 e + a 4 e + a 

Chorus 1:45
G|-----------------------------------------------------------------|
D|-----------------------------------------------------------------|
A|-----------------------------------------------------------------|
E|-0-0-0-0-0-0-0-0-0-0-0-0-0-0-3-3-0-0-0-0-0-0-0-0-2-2-2-2-3-3-3-3-|
B|-----------------------------------------------------------------|
   1 e + a 2 e + a 3 e + a 4 e + a 1 e + a 2 e + a 3 e + a 4 e + a 

G|-----------------------------------------------------------------|
D|---------------------------------5---4---------------------------|
A|-----------------------------------------5---3---5---------------|
E|-----------------------------------------------------0-2---0-----|
B|-1-1-1-1-1-1-1-1-1-1-1-1-1-1-1-1-----------------------------3---|
   1 e + a 2 e + a 3 e + a 4 e + a 1 e + a 2 e + a 3 e + a 4 e + a 

G|-----------------------------------------------------------------|
D|-----------------------------------------------------------------|
A|-----------------------------------------------------------------|
E|-0-0-0-0-0-0-0-0-0-0-0-0-0-0-3-3-0-0-0-0-0-0-0-0-2-2-2-2-3-3-3-3-|
B|-----------------------------------------------------------------|
   1 e + a 2 e + a 3 e + a 4 e + a 1 e + a 2 e + a 3 e + a 4 e + a 

G|------------------------------------------------------------------------------------------------|
D|---------------------------------5---4----------------------------------------------------------|
A|-----------------------------------------5---3---5---3------------------------------------------|
E|---------------------------------------------------------5---0---2---------------2---2---2---2--|
B|-1-1-1-1-1-1-1-1-1-1-1-1-1-1-1-1----------------------------------------------------------------|
   1 e + a 2 e + a 3 e + a 4 e + a 1 e + a 2 e + a 3 e + a 4 e + a 1 e + a 2 e + a 3 e + a 4 e + a 

Interlude 2:05
G|-----------------------------------------------------------------|
D|-----------------------------------------------------------------|
A|-----------------------------------------------------------------|
E|---------------------------------------------------------7-------|
B|-000-000-0-000---000-000-0-------000-000-0-000-0-0---------------|
   1 e + a 2 e + a 3 e + a 4 e + a 1 e + a 2 e + a 3 e + a 4 e + a 

G|-----------------------------------------------------------------|
D|-----------------------------------------------------------------|
A|-----------------------------------------------------------------|
E|-----------------------------------------------------------------|
B|-000-000-0-000---000-000-0-------000-000-0-000-0-0---------------|
   1 e + a 2 e + a 3 e + a 4 e + a 1 e + a 2 e + a 3 e + a 4 e + a 

Bridge 2:14
G|-----------------------------------------------------------------|
D|-----------------------------------------------------------------|
A|-----------------------------------------------------------------|
E|-7p6---6p5-----------------------7p6---6p5-----------------------|
B|-------------0-0---0-0---0-0---0-------------0-0---0-0---0-------|
   1 e + a 2 e + a 3 e + a 4 e + a 1 e + a 2 e + a 3 e + a 4 e + a 

G|-----------------------------------------------------------------|
D|-----------------------------------------------------------------|
A|-----------------------------------------------------------------|
E|-7p6---6p5-----------------------7p6---6p5-----------------------|
B|-------------0-0---0-0---0-0---0-------------0-0-5---4---3---2---|
   1 e + a 2 e + a 3 e + a 4 e + a 1 e + a 2 e + a 3 e + a 4 e + a 

G|-----------------------------------------------------------------|
D|-----------------------------------------------------------------|
A|-----------------------------------------------------------------|
E|-7p6---6p5-----------------------7p6---6p5-----------------------|
B|-------------0-1---0-5---0-1---0-------------0-1---0-5---0-------|
   1 e + a 2 e + a 3 e + a 4 e + a 1 e + a 2 e + a 3 e + a 4 e + a 

G|-------------------------------------------------|
D|-------------------------------------------------|
A|-------------------------------------------------|
E|-7p6---6p5---------------------------------------|
B|-------------0-1---0-5---0-1---0-5---4---3---2---|
   1 e + a 2 e + a 3 e + a 4 e + a 1 e + a 2 e + a 

Chorus 2:31
G|-----------------------------------------------------------------|
D|-----------------------------------------------------------------|
A|-----------------------------------------------------------------|
E|-0---------------------------3---0---------------2-------3-------|
B|-----------------------------------------------------------------|
   1 e + a 2 e + a 3 e + a 4 e + a 1 e + a 2 e + a 3 e + a 4 e + a 

G|-------------------------------------------------------------------------------------------------|
D|---------------------------------5---4-----------------------------------------------------------|
A|-----------------------------------------5---3---5---3-------------------------------------------|
E|---------------------------------------------------------5---0---2-------------------------------|
B|-1-----------------------------------------------------------------------------------------------|
   1 e + a 2 e + a 3 e + a 4 e + a 1 e + a 2 e + a 3 e + a 4 e + a 1 e + a 2 e + a 3 e + a 4 e + a 

2:42
G|-----------------------------------------------------------------|
D|-----------------------------------------------------------------|
A|-----------------------------------------------------------------|
E|-0-0-0-0-0-0-0-0-0-0-0-0-0-0-3-3-0-0-0-0-0-0-0-0-2-2-2-2-3-3-3-3-|
B|-----------------------------------------------------------------|
   1 e + a 2 e + a 3 e + a 4 e + a 1 e + a 2 e + a 3 e + a 4 e + a 

G|-----------------------------------------------------------------|
D|---------------------------------5---4---------------------------|
A|-----------------------------------------5---3---5---------------|
E|-----------------------------------------------------0-2---0-----|
B|-1-1-1-1-1-1-1-1-1-1-1-1-1-1-1-1-----------------------------3---|
   1 e + a 2 e + a 3 e + a 4 e + a 1 e + a 2 e + a 3 e + a 4 e + a 

G|-----------------------------------------------------------------|
D|-----------------------------------------------------------------|
A|-----------------------------------------------------------------|
E|-0-0-0-0-0-0-0-0-0-0-0-0-0-0-3-3-0-0-0-0-0-0-0-0-2-2-2-2-3-3-3-3-|
B|-----------------------------------------------------------------|
   1 e + a 2 e + a 3 e + a 4 e + a 1 e + a 2 e + a 3 e + a 4 e + a 

G|-----------------------------------------------------------------|
D|---------------------------------5---4---------------------------|
A|-----------------------------------------5---3---5---3-----------|
E|---------------------------------------------------------5---0---|
B|-1-1-1-1-1-1-1-1-1-1-1-1-1-1-1-1---------------------------------|
   1 e + a 2 e + a 3 e + a 4 e + a 1 e + a 2 e + a 3 e + a 4 e + a 

Outro Chorus 3:00 key change 
G|-----------------------------------------------------------------|
D|-----------------------------------------------------------------|
A|-----------------------------------------------------------------|
E|-2-2-2-2-2-2-2-2-2-2-2-2-2-2-2-2---------------------------------|
B|---------------------------------2-2-2-2-2-2-2-2-2-2-2-2-2-2-2-2-|
   1 e + a 2 e + a 3 e + a 4 e + a 1 e + a 2 e + a 3 e + a 4 e + a 

G|-----------------------------------------------------------------|
D|---------------------------------7---6---------------------------|
A|-----------------------------------------7---5---7---------------|
E|-------------------------------------------------------4-----0---|
B|-3-3-3-3-3-3-3-3-3-3-3-3-3-3-3-3---------------------------------|
   1 e + a 2 e + a 3 e + a 4 e + a 1 e + a 2 e + a 3 e + a 4 e + a 

G|-----------------------------------------------------------------|
D|-----------------------------------------------------------------|
A|-----------------------------------------------------------------|
E|-2-2-2-2-2-2-2-2-2-2-2-2-2-2-5-5-----------------5-5-5-5-5-5-5-5-|
B|---------------------------------2-2-2-2-2-2-2-2-----------------|
   1 e + a 2 e + a 3 e + a 4 e + a 1 e + a 2 e + a 3 e + a 4 e + a 

G|-----------------------------------------------------------------|
D|---------------------------------7---6---------------------------|
A|-----------------------------------------7---5---7---5-----------|
E|---------------------------------------------------------7---2---|
B|-3-3-3-3-3-3-3-3-3-3-3-3-3-3-3-3---------------------------------|
   1 e + a 2 e + a 3 e + a 4 e + a 1 e + a 2 e + a 3 e + a 4 e + a 

G|-------------------------------------------------------------------------------------------------|
D|-------------------------------------------------------------------------------------------------|
A|-------------------------------------------------------------------------------------------------|
E|-4-------------------------------2-------2-------2-------2-------2-2-2-2-2-2-2-------------------|
B|-------------------------------------------------------------------------------------------------|
   1 e + a 2 e + a 3 e + a 4 e + a 1 e + a 2 e + a 3 e + a 4 e + a 1 e + a 2 e + a 3 e + a 4 e + a
Tabbed by Dave Vucko
Добавлено: 02.12.2015
Вам также может быть интересно:
Другие материалы по этой песне:

Страница создана 25.10.2014
http://primanota.ru/epica/victims-of-contingency-chords.htm
Привет, Гость.
Предлагаем пройти революционный курс по гитаре.
Подарок от PrimaNota.Ru, забирай!