PrimaNota.ru - самый крупный в мире бесплатный архив песенных текстов, аккордов, табулатур и нот


Epica - Storm The Sorrow - текст песни, бас-таба, видео

Регистрация Запомнить меня
Войти через:  Facebook Google Twitter Vk Yandex Mail.ru

Epica - Storm The Sorrow - текст песни, бас-таба, видео

Печатать
Просмотров: 149
Уроки эстрадного вокала в Санкт-Петербурге
Авторы музыки: Simone Simons, Coen Janssen
Авторы текста: Mark Jansen
-------------------------------------------------------------------------------
                             Storm the Sorrow - Epica
-------------------------------------------------------------------------------
Tabbed by: zoltan56

credit to songsterr for sheet music/tabs

Intro:
G|----------|----------|----------|----------|----------|----------|----------|----------|
D|----------|----------|----------|----------|----------|----------|----------|----------|
A|----------|----------|----------|----------|----------|----------|----------|----------|
E|------0---|----------|------0---|-2--------|------0---|----------|------0---|-2--------|
B|-2--------|-4----3---|-2--------|------3---|-2--------|-4----3---|-2--------|------3---|

Verse 1:
G|---------------------------------------------------------------------------------------------|
D|---------------------------------------------------------------------------------------------|
A|----------------------------------------0-0--------------------------------------------------|
E|---------------------------------------------------------------------0---0-0--002----2-2-0---|
B|-000---0-0--000---0-0--000---0-0--003--------000---0-0--003---3-3--33----------------------3-|

Interlude:
G|----------|----------|----------|----------|
D|----------|----------|----------|----------|
A|----------|----------|----------|----------|
E|------0---|----------|------0---|-2--------|
B|-2--------|-4----3---|-2--------|------3---|

Verse 2: bars flow with eachother (11 goes straight to 00000) (1's not 11's)
G|-------------------------------------------------------------------------------------------------------|
D|-------------------------------------------------------------------------------------------------------|
A|---------------------------------------------0-0-------------------------------------------------------|
E|---------------------------------------------------------------33333-3-3-33------------00000-00--------|
B|-0000000-0-0-0000000-0-0-0000000-0-0-0033333-----0000000-0-0-00------------33333-3-3-33--------11111-11|

G|----------------------------------------------------------------------------------------------------|
D|----------------------------------------------------------------------------------------------------|
A|------------------------------------------0-0-------------------------------------------------------|
E|------------------------------------------------------------------------00000-0-0-0022222-2222222-22|
B|00000-0-0-0000000-0-0-0000000-0-0-0033333-----0000000-0-0-0033333-3-3-33----------------------------|

Interlude 2:
G|----------|----------|----------|----------|----------|----------|----------|------------|
D|----------|----------|----------|----------|----------|----------|----------|------------|
A|----------|----------|----------|----------|----------|----------|----------|------------|
E|------0---|----------|------0---|-2--------|------0---|----------|------0---|-2-2-2-2----|
B|-2--------|-4----3---|-2--------|------3---|-2--------|-4----3---|-2--------|---------3--|

Chorus 1:
G|---------|---------|---------|---------|---------|---------|---------|---------|X2|-----|
D|---------|---------|---------|---------|---------|---------|---------|---------|X2|-----|
A|---------|---------|---------|---------|---------|---------|-0-0-0-0-|-0-0-0-0-|X2|-----|
E|-0-0-0-0-|-0-0-----|---------|---------|---------|---------|---------|---------|X2|-----|
B|---------|-----2-2-|-0-0-0-0-|-0-0-0-0-|-3-3-3-3-|-3-3-3-3-|---------|---------|X2|0~~--|

Verse 3:
G|-------------------------------------------------------------------------------------------------------|
D|-------------------------------------------------------------------------------------------------------|
A|---------------------------------------------0-0-------------------------------------------------------|
E|---------------------------------------------------------------33333-3-3-33------------00000-00--------|
B|-0000000-0-0-0000000-0-0-0000000-0-0-0033333-----0000000-0-0-00------------33333-3-3-33--------11111-11|

G|----------------------------------------------------------------------------------------------------|
D|----------------------------------------------------------------------------------------------------|
A|------------------------------------------0-0-------------------------------------------------------|
E|------------------------------------------------------------------------00000-0-0-0022222-2222222-22|
B|00000-0-0-0000000-0-0-0000000-0-0-0033333-----0000000-0-0-0033333-3-3-33----------------------------|

Interlude 3:
G|----------|----------|----------|----------|----------|----------|----------|------------|
D|----------|----------|----------|----------|----------|----------|----------|------------|
A|----------|----------|----------|----------|----------|----------|----------|------------|
E|------0---|----------|------0---|-2--------|------0---|----------|------0---|-2-2-2-2----|
B|-2--------|-4----3---|-2--------|------3---|-2--------|-4----3---|-2--------|---------3--|

Chorus 2: X2
G|---------|---------|---------|---------|---------|---------|---------|---------|
D|---------|---------|---------|---------|---------|---------|---------|---------|
A|---------|---------|---------|---------|---------|---------|-0-0-0-0-|-0-0-0-0-|
E|-0-0-0-0-|-0-0-----|---------|---------|---------|---------|---------|---------|
B|---------|-----2-2-|-0-0-0-0-|-0-0-0-0-|-3-3-3-3-|-3-3-3-3-|---------|---------|

Post Chorus:
G|----------------|--------------|
D|----------------|--------------|
A|----------------|------------2-|
E|--------------2-|--------------|
B|-0~~~-----------|-1~~~---------|

Bridge:
G|------------------|------------------|------------------|------------------|X2
D|------------------|------------------|------------------|------------------|X2
A|------------------|------------------|------------------|------------------|X2
E|------------------|------------------|------------------|------------------|X2
B|-0000000000000000-|-0000000000000000-|-1111111111111111-|-1111111111111111-|X2

G|-------------|-------------|------------------|-------------|
D|-------------|-------------|------------------|-------------|
A|-------------|-------------|------------------|-------------|
E|-------------|-------------|------------------|-------------|
B|-000000000---|-000000000---|-111111111--11-11-|-000000000---|

Piano Break

Chorus 3: X2
G|---------|---------|---------|---------|---------|---------|---------|---------|
D|---------|---------|---------|---------|---------|---------|---------|---------|
A|---------|---------|---------|---------|---------|---------|---------|---------|
E|-2-2-2-2-|-2-2-----|---------|---------|-0-0-0-0-|-0-0-0-0-|---------|---------|
B|---------|-----4-4-|-2-2-2-2-|-2-2-2-2-|---------|---------|-0-0-0-0-|-0-0-0-0-|

Outro:
G|-----------------|-----------------|-----------------|----------------|
D|-----------------|-----------------|-----------------|----------------|
A|-----------------|-----------------|-----------------|----------------|
E|-----------------|-0---0-0-0-0-0-0-|-----------------|----------0---0-|
B|-2---2-2-2-2-2-2-|-----------------|-4---4-4-4-4-4-4-|-33333--3---3---|

G|-----------------|-----------------|-----------------|----------------|
D|-----------------|-----------------|-----------------|----------------|
A|-----------------|-----------------|-----------------|----------------|
E|-----------------|-0---0-0-0-0-0-0-|-2---2-2-2-2-2-2-|----------------|
B|-2---2-2-2-2-2-2-|-----------------|-----------------|-33333--3-2-0-3-|

G|----------|----------|---------------|
D|----------|----------|---------------|
A|----------|----------|---------------|
E|------0---|----------|---------------|
B|-2--------|-4----3---|-2---------222-|


thats it, enjoy...


| /  slide up
| \  slide down
| h  hammer-on
| p  pull-off
| ~  vibrato
| +  harmonic
| x  Mute note
===============================================================================
Добавлено: 09.07.2015
Другие материалы по этой песне:

Страница создана 07.07.2013
http://primanota.ru/epica/storm-the-sorrow-chords.htm
Привет, Гость.
Предлагаем пройти революционный курс по гитаре.
Подарок от PrimaNota.Ru, забирай!