PrimaNota.ru - самый крупный в мире бесплатный архив песенных текстов, аккордов, табулатур и нот


Ensiferum - Guardians Of Fate - текст песни, таба, бас-таба, видео

Регистрация Запомнить меня
Войти через:  Facebook Google Twitter Vk Yandex Mail.ru

Ensiferum - Guardians Of Fate - текст песни, таба, бас-таба, видео

Печатать
Просмотров: 313
Авторы музыки: Markus Toivonen, Oliver Fokin, Jari Mäenpää, Jukka-Pekka Miettinen
Авторы текста: Markus Toivonen, Oliver Fokin, Jari Mäenpää, Jukka-Pekka Miettinen
Song:   Guardians Of Fate
Band:   Ensiferum
Album:  Ensiferum

Tabber: Cedric rottiers
Tuning: Normal (E,A,D,G,B,E)
_____________________________________________________

4/4
|--------------------------|--------------------------|
|--------------------------|--------------------------|
|--------------------------|--------------------------|
|--------------------------|--------------------------|
|--------------4--4--4--4--|--------------0--0--0--0--|
|--2--2--2--2--------------|--0--0--0--0--------------|
--------------------------|------------------------|
--------------------------|------------------------|
--------------------------|------------------------|
--------------------------|------------------------|
--------------4--4--4--4--|------------------------|
--0--0--0--0--------------|--2--2--2--0---2--------|

|--------------------------|--------------------------|
|--------------------------|--------------------------|
|--------------------------|--------------------------|
|--------------6--6--6--6--|--------------2--2--2--2--|
|--4--4--4--4--4--4--4--4--|--2--2--2--2--0--0--0--0--|
|--2--2--2--2--------------|--0--0--0--0--------------|

--------------------------|------------------------|
--------------------------|------------------------|
--------------------------|------------------------|
--------------6--6--6--6--|------------------------|
--2--2--2--2--4--4--4--4--|--4--4--4--2---4--------|
--0--0--0--0--------------|--2--2--2--0---2--------|


Riff 1.lead                                                                                 4x
||----------------------|----------------------|-----------------------|--------------------||
||----------------------|----------------------|-----------------------|--------------------||
||*---------------------|----------------------|--4------4-------------|-------------------*||
||*--4--------6----7----|--6--------7----6--7--|------------7--6-------|--4----------------*||
||----------------------|----------------------|------------------7----|--------------------||
||----------------------|----------------------|-----------------------|--------------------||

Riff 1.rhythm                                                                         4x
||---------------------|--------------------|--------------------|--------------------||
||---------------------|--------------------|--------------------|--------------------||
||*--------------------|--------------------|--------------------|-------------------*||
||*-----------6--------|-----------2--------|-----------6--------|-------------------*||
||---4--------4--------|--2--------0--------|--2--------4--------|--4-----------------||
||---2-----------------|--0-----------------|--0-----------------|--2-----------------||


Riff 2.a
||----------------------------|---------------------------------|
||----------------------------|---------------------------------|
||*---------------------------|---------------------------------|
||*---------------------------|---------------------------------|
||---4--------------4----2----|--7------------------------------|
||---2--2-2-2-2-2-2-2----0----|--5--5-5-5-5-5-5-5-5-5-5-5-5-5-5-|











---------------------------|----------------------||
---------------------------|----------------------||
---------------------------|---------------------*||
-----------------6----4----|-----------66--------*||
--6--------------4----2----|--7--------44---------||
--4--4-4-4-4-4-4-----------|--5-------------------||


Riff 2.b.lead
||----------------------------|---------------------------------|
||----------------------------|---------------------------------|
||*---------------------------|---------------------------------|
||*--4--4-4-4-4-4-4-4----2----|--7--7-7-7-7-7-7-7-7-7-7-7-7-7-7-|
||----------------------------|---------------------------------|
||----------------------------|---------------------------------|
                                                 
---------------------------|----------------------||
---------------------------|----------------------||
-----------------6----4----|-----------66--------*||
--6--6-6-6-6-6-6-----------|--7------------------*||
---------------------------|----------------------||
---------------------------|----------------------||

Riff 2.b.rhythm
||----------------------------|---------------------------------|
||----------------------------|---------------------------------|
||*---------------------------|---------------------------------|
||*---------------------------|---------------------------------|
||---4--------------4----2----|--7------------------------------|
||---2--2-2-2-2-2-2-2----0----|--5--5-5-5-5-5-5-5-5-5-5-5-5-5-5-|

---------------------------|----------------------||
---------------------------|----------------------||
---------------------------|---------------------*||
-----------------6----4----|-----------66--------*||
--6--------------4----2----|--7--------44---------||
--4--4-4-4-4-4-4-----------|--5-------------------||


Riff 3.a
|------------------------|------------------------|------------------------|
|------------------------|------------------------|------------------------|
|------------------------|------------------------|------------------------|
|-------------2----2--2--|------------------------|-------------9----9--9--|
|--4----4--4--0----0--0--|--------2----4----------|--7----7--7--7----7--7--|
|--2----2--2-------------|--0--0--0----2----2--4--|--5----5--5-------------|

-----------------------|-------------------------|
-----------------------|-------------------------|
-----------------------|-------------------------|
-------------6----6----|-------------2-----2--2--|
--4----4--4--4----4----|--4----4--4--0-----0--0--|
--2----2--2------------|--2----2--2--------------|

------------------------|-------------------------|-----------------------|
------------------------|-------------------------|-----------------------|
------------------------|-------------------------|-----------------------|
------------------------|-------------9-----9--9--|--6--6--6----11--------|
--------2----4----------|--7----7--7--7-----7--7--|--4--4--4----9---------|
--0--0--0----2----2--4--|--5----5--5--------------|-----------------------|





Riff 4.lead                                            4x
||--------------------------|--------------------------||
||--------------------------|--------------------------||
||*-------------------------|--2--6--6----6h4-1--1----*||
||*--4--7--7----7h6-2--2----|-------------------------*||
||--------------------------|--------------------------||
||--------------------------|--------------------------||

Riff 4.rhythm                                                            4x
||-----------------------------------|-----------------------------------||
||-----------------------------------|-----------------------------------||
||*----------------------------------|----------------------------------*||
||*----------------------------------|------------------2-2-2-2-2-2-2-2-*||
||-------------------4-4-4-4-4-4-4-4-|--0-0-0-0-0-0-0-0------------------||
||---2-2-2-2-2-2-2-2-----------------|-----------------------------------||


Riff 1 (2x)

Riff 2.a


Riff 3.b.lead
|------------9----9----|--7--9--7----------14--12--|
|--7----7--------------|-------------10------------|
|----------------------|---------------------------|
|----------------------|---------------------------|
|----------------------|---------------------------|
|----------------------|---------------------------|

--9----9--11--12----12--11--|--9--7--9---11--9-----------|------------9----9----|
----------------------------|---------------------10--9--|--7----7--------------|
----------------------------|----------------------------|----------------------|
----------------------------|----------------------------|----------------------|
----------------------------|----------------------------|----------------------|
----------------------------|----------------------------|----------------------|

--7----9--7--------------|---------------7----7----|--7----------------------|
-------------10----7--9--|--10----10---------------|-----10--9--10--7--------|
-------------------------|-------------------------|-------------------------|
-------------------------|-------------------------|-------------------------|
-------------------------|-------------------------|-------------------------|
-------------------------|-------------------------|-------------------------|

Riff 3.b.rhythm
|------------------------|------------------------|------------------------|
|------------------------|------------------------|------------------------|
|------------------------|------------------------|------------------------|
|-------------2----2--2--|------------------------|-------------9----9--9--|
|--4----4--4--0----0--0--|--------2----4----------|--7----7--7--7----7--7--|
|--2----2--2-------------|--0--0--0----2----2--4--|--5----5--5-------------|

-----------------------|-------------------------|
-----------------------|-------------------------|
-----------------------|-------------------------|
-------------6----6----|-------------2-----2--2--|
--4----4--4--4----4----|--4----4--4--0-----0--0--|
--2----2--2------------|--2----2--2--------------|

------------------------|-------------------------|-----------------------|
------------------------|-------------------------|-----------------------|
------------------------|-------------------------|-----------------------|
------------------------|-------------9-----9--9--|--6--6--6----11--------|
--------2----4----------|--7----7--7--7-----7--7--|--4--4--4----9---------|
--0--0--0----2----2--4--|--5----5--5--------------|-----------------------|


Riff 4
Riff 1 (2x)










Solo (didn't get it. Here is only the solo background)
|-------------------|-------------------|-------------------|
|-------------------|-------------------|-------------------|
|-------------------|-------------------|-------------------|
|--4----------------|-------------------|-------------------|
|--2----------------|--2----------------|--4----------------|
|-------------------|--0----------------|--2----------------|

-------------------|-------------------|-------------------|
-------------------|-------------------|-------------------|
-------------------|-------------------|-------------------|
--6----------------|--4----------------|-------------------|
--4----------------|--2----------------|--2----------------|
-------------------|-------------------|--0----------------|

--------------------|---------------------|---------------------|---------------------|
--------------------|---------------------|---------------------|---------------------|
--------------------|---------------------|---------------------|---------------------|
-----------6--------|--2--------4---------|--4------------------|--6------------------|
--4--------4--------|--0--------2---------|--2----2----4--------|--4------2--4--------|
--2-----------------|---------------------|-------0----2--------|---------0--2--------|


Riff 5
|----------------------------|----------------------------|
|----------------------------|----------------------------|
|----------------------------|----------------------------|
|----------------------------|----------------------------|
|--9------9------9------2----|--4------4------4------7----|
|--7--7-7-7--7-7-7--7-7-0----|--2--2-2-2--2-2-2--2-2-5----|

------------------------------|-------------------------------|
------------------------------|-------------------------------|
------------------------------|-------------------------------|
--6------6--------------------|-------------------------------|
--4--4-4-4--4-4-2------2------|--4-------4------4------4------|
----------------0--0-0-0--0-0-|--2--2-2--2--2-2-2--2-2-2--2-2-|

----------------------------|-----------------------------|
----------------------------|-----------------------------|
----------------------------|-----------------------------|
----------------------------|-----------------------------|
--9------9------9------2----|--4------4-------4------7----|
--7--7-7-7--7-7-7--7-7-0----|--2--2-2-2---2-2-2--2-2-5----|

--------------------------|---------------------|
--------------------------|---------------------|
--------------------------|---------------------|
--6------6------9----6----|--11-----------------|
--4--4-4-4--4-4-7----4----|--9------------------|
--------------------------|---------------------|


Riff 4

Riff 1


Ending
-----------------------------||
-----------------------------||
-----------------------------||
--11-11-11-11---11-11-11-11/-||
--9--9--9--9----9--9--9--9/--||
-----------------------------||
Добавлено: 28.07.2012
Другие материалы по этой песне:

Страница создана 11.03.2012
http://primanota.ru/ensiferum/guardians-of-fate-chords.htm
Привет, Гость.
Предлагаем пройти революционный курс по гитаре.
Подарок от PrimaNota.Ru, забирай!