PrimaNota.ru - самый крупный в мире бесплатный архив песенных текстов, аккордов, табулатур и нот


Emmure - Chicagos Finest - текст песни, таба, видео

Регистрация Запомнить меня
Войти через:  Facebook Google Twitter Vk Yandex Mail.ru

Emmure - Chicagos Finest - текст песни, таба, видео

Печатать
Просмотров: 179
|----------0----------0----------0----------0----------0---------------|
|------13---------13---------13---------13---------13------------------|
|--10---------10---------10---------10---------10----------------------|
|----------------------------------------------------------------------|
|----------------------------------------------------------------------|
|----------------------------------------------------------------------|


|----------------------------------------------------------12----------|
|---------13---------13---------13----------13---------13------13------|
|-----10---------10---------10----------10---------10------------------|
|--0----------0----------0----------0-----------0----------------------|
|----------------------------------------------------------------------|
|----------------------------------------------------------------------|


|----------12----------12---------12----------12----------12-----------|
|------13---------13----------13----------13----------13---------------|
|--10---------10----------10----------10----------10-------------------|
|----------------------------------------------------------------------|
|----------------------------------------------------------------------|
|----------------------------------------------------------------------|


|----------------------------------------------------------------------|
|--------------10-10-10-10-------------10-10-10-10---------------------|
|--------------x--x--x--x--------------x--x--x--x----------------------|
|------7-7-----10-10-10-10-----7-7-----10-10-10-10---------------------|
|--888-8-8--88-8--8--8--8--888-8-8--88-8--8--8--8----------------------|
|--888-8-8--88-8--8--8--8--888-8-8--88-8--8--8--8----------------------|


|----------------------------------------------------------------------|
|----------------------------------------------------------------------|
|----------------------------------------------------------------------|
|------0-0----0-0-0-0------0-0----0-0-0-0------------------------------|
|--000-0-0-00-0-0-0-0--000-0-0-00-0-0-0-0------------------------------|
|--000-0-0-00-0-0-0-0--000-0-0-00-0-0-0-0------------------------------|


|----------------------------------------------------------------------|
|---------13--------13--------13-----13--------------------------------|
|----10--------10--------10--------10--10------------------------------|
|--0----0----0----0----0----0----0-------------------------------------|
|----------------------------------------------------------------------|
|----------------------------------------------------------------------|


|----------12----------12---------12----------12----------12-----------|
|------13---------13----------13----------13----------13---------------|
|--10---------10----------10----------10----------10-------------------|
|----------------------------------------------------------------------|
|----------------------------------------------------------------------|
|----------------------------------------------------------------------|


|----------------------------------------------------------------------|
|--------------10-10-10-10-------------10-10-10-10---------------------|
|--------------x--x--x--x--------------x--x--x--x----------------------|
|------7-7-----10-10-10-10-----7-7-----10-10-10-10---------------------|
|--888-8-8--88-8--8--8--8--888-8-8--88-8--8--8--8----------------------|
|--888-8-8--88-8--8--8--8--888-8-8--88-8--8--8--8----------------------|


|----------------------------------------------------------------------|
|----------------------------------------------------------------------|
|----------------------------------------------------------------------|
|------0-0----0-0-0-0------0-0----0-0-0-0------------------------------|
|--000-0-0-00-0-0-0-0--000-0-0-00-0-0-0-0------------------------------|
|--000-0-0-00-0-0-0-0--000-0-0-00-0-0-0-0------------------------------|


|----------------------------------------------------------------------|
|----------------------------------------------------------------------|
|----------------------------------------------------------------------|
|----------------------------------------------------------------------|
|--0~--0-00--000000--00-0-00---000-000000-00-000-000-000000-00-000-----|
|--0~--0-00--000000--00-0-00---000-000000-00-000-000-000000-00-000-----|


|----------0~----------------------------------------------------------|
|------13~-------------------------------------------------------------|
|--10~-----------------------------------------------------------------|
|----------------------------------------------------------------------|
|-------------00-000-000-000000-00-000---------------------------------|
|-------------00-000-000-000000-00-000---------------------------------|


|----------0----------0----------0----------0----------0---------------|
|------13---------13---------13---------13---------13------------------|
|--10---------10---------10---------10---------10----------------------|
|----------------------------------------------------------------------|
|----------------------------------------------------------------------|
|--------------------------------------------------------[pickslide]---|


|----------------------------------------------------------------------|
|---------13--------13--------13-----13--------------------------------|
|----10--------10--------10--------10--10------------------------------|
|--0----0----0----0----0----0----0-------------------------------------|
|----------------------------------------------------------------------|
|----------------------------------------------------------------------|


|----------12----------12---------12----------12----------12-----------|
|------13---------13----------13----------13----------13---------------|
|--10---------10----------10----------10----------10-------------------|
|----------------------------------------------------------------------|
|----------------------------------------------------------------------|
|----------------------------------------------------------------------|


|----------------------------------------------------------------------|
|--------------10-10-10-10-------------10-10-10-10---------------------|
|--------------x--x--x--x--------------x--x--x--x----------------------|
|------7-7-----10-10-10-10-----7-7-----10-10-10-10---------------------|
|--888-8-8--88-8--8--8--8--888-8-8--88-8--8--8--8----------------------|
|--888-8-8--88-8--8--8--8--888-8-8--88-8--8--8--8----------------------|


|----------------------------------------------------------------------|
|------13-13----13-13-13-13-----13-13----13-13-13-13-------------------|
|------10-10----10-10-10-10-----10-10----10-10-10-10-------------------|
|--000-------00-------------000-------00-------------------------------|
|--000-------00-------------000-------00-------------------------------|
|--000-------00-------------000-------00-------------------------------|


|-----------------------------17-17-17-------------20-20---------------|
|--------------17-17b18b17-------------13-13-15-15-------18------------|
|--------------------------14-------------------------------14-17-19---|
|--15p14~--------------------------------------------------------------|
|---------12~----------------------------------------------------------|
|----------------------------------------------------------------------|


|-----------------------------------------------------------13-12------|
|--------------------------------------10----------10-11----------13-10|
|--9h10p9---------------10-14-------10----------10-------10------------|
|---------10------10-12-------10-12-------10-12------------------------|
|------------12~-------------------------------------------------------|
|----------------------------------------------------------------------|


|----------------------------------------------------------------------|
|----------------------------------------------------------------------|
|----------------------------------------------------------------------|
|----------------------------------------------------------------------|
|---0000-00-0000-0-0-00--0000-00-0000-0-0-00---------------------------|
|---0000-00-0000-0-0-00--0000-00-0000-0-0-00---------------------------|
Добавлено: 16.04.2012
Другие материалы по этой песне:

Страница создана 16.04.2012
http://primanota.ru/emmure/chicagos-finest-chords.htm
Привет, Гость.
Предлагаем пройти революционный курс по гитаре.
Подарок от PrimaNota.Ru, забирай!