PrimaNota.ru - самый крупный в мире бесплатный архив песенных текстов, аккордов, табулатур и нот


Emmure - A Gift A Curse - таба, видео

Регистрация Запомнить меня
Войти через:  Facebook Google Twitter Vk Yandex Mail.ru

Emmure - A Gift A Curse - таба, видео

Печатать
Просмотров: 358
Emmure
A Gift A Curse
Eternal Enemies (2014)

Tuning: Drop A

Intro 0:06
B|--------------|
G|--------------|
D|--------------|
A|--------------|
E|--------------|
A|-1/7\---------|

B|------------------------------------------------------|
G|------------------------------------------------------|
D|------------------------------------------------------|
A|------------------------------------------------------|
E|-----------12-8----8-----------12-8----8--------------|
A|-0~000000-------10----00~0000-------10----------------|
     ......                ....

B|------------------------------------------------------|
G|------------------------------------------------------|
D|------------------------------------------------------|
A|------------------------------------------------------|
E|-----------12-8----8-----------12-8-------------------|
A|-0~000000-------10----00~0000-------10/7--------------|
     ......                ....

B|------------------------------------------------------|
G|------------------------------------------------------|
D|------------------------------------------------------|
A|------------------------------------------------------|
E|-----------12-8---8-----------12-8----8---------------|
A|-7~777777-------7----7~777777------10-----------------|
     ......              ......

B|------------------------------------------------------|
G|------------------------------------------------------|
D|------------------------------------------------------|
A|------------------------------------------------------|
E|-----------12-8----8-----------12-8----8--------------|
A|-0~000000-------10----00~0000-------10----------------|
     ......                ....
Добавлено: 12.04.2014
Другие материалы по этой песне:

Страница создана 12.04.2014
http://primanota.ru/emmure/gift-a-curse-chords.htm
Привет, Гость.
Предлагаем пройти революционный курс по гитаре.
Подарок от PrimaNota.Ru, забирай!