PrimaNota.ru - самый крупный в мире бесплатный архив песенных текстов, аккордов, табулатур и нот


Emmure - I Only Mean Half Of What I Dont Say - текст песни, таба, бас-таба, видео

Регистрация Запомнить меня
Войти через:  Facebook Google Twitter Vk Yandex Mail.ru

Emmure - I Only Mean Half Of What I Dont Say - текст песни, таба, бас-таба, видео

Печатать
Просмотров: 329
Новый альбом группы 'Черный Кузнец' по культовому сериалу 'Сверхъестественное'!
As recorded by Emmure
(From the 2008 Album THE RESPECT ISSUE)

Transcribed by Jonathan Rose
        

Words and Music by Emmure

Gtr I (Bb F Bb Eb G C) - 'Left Channel'
Gtr II (Bb F Bb Eb G C) - 'Right Channel'
Gtr III (Bb F Bb Eb G C) - 'Guitar III'
Gtr IV (Bb F Bb Eb G C) - 'Pickscrape Left'
Gtr V (Bb F Bb Eb G C) - 'Pickscrape Right'

 Intro
  Dancefight Q=126
  D5          N.C.      FbEbEbEb5
 4/4
  Gtr I
                        PM----|
   W          a E. E. E E E E E
|-----------|-------------------||
|-----------|-------------------||
|-----------|-------------------||
|--0--------|-------------------||
|--0--------|-----------2-1-0-1-||
|--0--------|-5s8--7--3-3-2-1-2-||
|
| Gtr II
|                       PM----|
|  W          a E. E. E E E E E
|-----------|-------------------||
|-----------|-------------------||
|-14--------|-------------------||
|--x--------|-------------------||
|-12--------|-----------2-1-0-1-||
|-----------|-5s8--7--3-3-2-1-2-||


 "I'll try my best to explain.."
  D5
  Gtrs I, II
  PM|   PM|   PM|   PM|   PM|   PM--|   PM|   PM|   PM------------|
  S S S S S S S S S S S S S S S S   S S S S S S S S S S S S S S S S
|---------------------------------|---------------------------------|
|---------------------------------|---------------------------------|
|---------------------------------|---------------------------------|
|---------------------------------|---------------------------------|
|-0-0---0-0---0-0---0-0---0-0---0-|-0---0-0---0-0---0-0-0-0-0-0-0-0-|
|-0-0---0-0---0-0---0-0---0-0---0-|-0---0-0---0-0---0-0-0-0-0-0-0-0-|


                                    N.C.
  PM|   PM|   PM|   PM|   PM----|
  S S S S S S S S S S S S S S S S   a E. E. E a E E E E
|---------------------------------|---------------------|
|---------------------------------|---------------------|
|---------------------------------|-2s3--2--------------|
|---------------------------------|---------3-----------|
|-0-0---0-0---0-0---0-0---0-0-0-0-|---------------------|
|-0-0---0-0---0-0---0-0---0-0-0-0-|-----------1s4-3-1-3-|


  S E S E S E S E S E S   E S E S E S S S S S S S S
|-----------------------|---------------------------|
|-----------------------|---------------------------|
|-----------------------|---------------------------|
|-----------------------|---------------------------|
|-----------------------|---------------------------|
|-0-0-0-0-0-0-0-0-0-0-0-|-0-0-0-0-0-0-0-0-0-0-0-0-0-|


                                    FbEbEbEb5 Fb5
                                             2/4
                                    PM--------|
  S E S E S E S E S E S   a E. E. E E E E E   E Q.
|-----------------------|-------------------|--------||
|-----------------------|-------------------|--------||
|-----------------------|-------------------|--------||
|-----------------------|-------------------|--------||
|-----------------------|-----------2-1-0-1-|-0------||
|-0-0-0-0-0-0-0-0-0-0-0-|-5s8--7--3-3-2-1-2-|-1------||


   "I will show no sympathy.."
    Ebb5
   3/4
    Gtrs I, II
                       PM|        PM     PM--|
    E H    S S   +S  S E E Q.     E Q.   S E S
||-------------|----------------|--------------|
||o------------|----------------|--------------|
||-------------|----------------|--------------|
||-------------|----------------|--------------|
||o-0------0-0-|-(0)-0-0-0------|-0------0-0-0-|
||--1------1-1-|-(1)-1-1-1------|-1------1-1-1-|


                    4/4
   PM          PM----------------------|
                                   |-3-|
  +S  Q  S S E S E   E S E S E E E E E E
|------------------|----------------------||
|------------------|---------------------o||
|------------------|----------------------||
|------------------|----------------------||
|-(0)------0-0-0-0-|-0-0-0-0-0-0-0-0-0-0-o||
|-(1)------1-1-1-1-|-1-1-1-1-1-1-1-1-1-1--||


  D5
  Gtrs I, II
  PM-------|                PM---------|         PM-
  H        +E     S  S  E   E    H     +E  S S E E
|-----------------------------|--------------------|
|-----------------------------|--------------------|
|-----------------------------|--------------------|
|-----------------------------|--------------------|
|-0--------(0)----0--0--0---0-|--0-----(0)-0-0-0-0-|
|-0--------(0)----0--0--0---0-|--0-----(0)-0-0-0-0-|
|
| Gtr III
|                                >
| Q.   S S  E    +E    +Q       +W
|-----------------------------|--------------------|
|------4-4--4----(4)---(4)----|-(4)----------------|
|------7-7--7b8==(7)---(7)r---|-(7)----------------|
|-----------------------------|--------------------|
|-----------------------------|--------------------|
|-----------------------------|--------------------|


 -------------------------|
  H    H      S E H.      +S
|-----------|-------------------|
|-----------|-------------------|
|-----------|-------------------|
|-----------|-------------------|
|-0----0----|-0-0-0-------(0)---|
|-0----0----|-0-0-0-------(0)---|
|
| W           W
|-----------|-------------------|
|-----------|-------------------|
|-----------|-------------------|
|-----------|-------------------|
|-----------|-------------------|
|-----------|-------------------|


  D5         N.C.
  Gtr I
  W           E    E    E    E    E    E    E    E
|----------|-------0--------------0--------------0----||
|----------|------------4--------------4--------------||
|-7--------|--7--------------7--------------7---------||
|-0--------|-(0)--(0)--(0)--(0)--(0)--(0)--(0)--(0)---||
|-0--------|-(0)--(0)--(0)--(0)--(0)--(0)--(0)--(0)---||
|-0--------|-(0)--(0)--(0)--(0)--(0)--(0)--(0)--(0)---||
|
| Gtr II     Gtr V
|             TPTP TPTP TPTP TPTP TPTP TPTP TPTP TPTP
| W           S S  S S  S S  S S  S S  S S  S S  S S
|----------|------------------------------------------||
|----------|------------------------------------------||
|----------|------------------------------------------||
|-0--------|------------------------------------------||
|-0--------|--xSxS=xSxS=xSxS=xSxS=xSxS=xSxS=xSxS=xSx\-||
|-0--------|--xSxS=xSxS=xSxS=xSxS=xSxS=xSxS=xSxS=xSx\-||


 "Your sad fate.."
  D5
 3/4
  Gtr I
  E E E E E E      E    E E E  E E   E E  E E E   E
|---0-----0-----|-------0---0------|-0------0---------|
|-----4-----4---|--------------4---|---4--------------|
|-7-----7-------|--7------7------7-|------7-------3---|
|---------------|------------------|----------7-------|
|---------------|------------------|------------------|
|---------------|------------------|------------------|
|
| Gtr II
| PM                    PM|          PM       PM----|
| E H       S S   +S  S E E Q.       E Q.     S E   S
|---------------|------------------|------------------|
|---------------|------------------|------------------|
|---------------|------------------|------------------|
|---------------|------------------|------------------|
|-0---------0-0-|-(0)-0-0-0--------|-0--------0-0---0-|
|-0---------0-0-|-(0)-0-0-0--------|-0--------0-0---0-|


                       4/4
   E    Q   E   E   E   E E   E   E E E E   E
|---------------------|-------------------------|
|-------3-------------|-------------3-----------|
|-----------3-------3-|---3-------3---3-----3---|
|--7------------7-----|-7-----7---------7-------|
|---------------------|-------------------------|
|---------------------|-------------------------|
|
|  PM             PM--------------------------|
| +S  Q   S S E   S E   E S E   S E E E S E   S
|---------------------|-------------------------|
|---------------------|-------------------------|
|---------------------|-------------------------|
|---------------------|-------------------------|
|-(0)-------0-0---0-0-|-0-0-0---0-0-0-0-0-0---0-|
|-(0)-------0-0---0-0-|-0-0-0---0-0-0-0-0-0---0-|


                                     H=H      Faster Q=131
 3/4                                4/4
  E E E E E E      E    E E E  E E   E E  E E  E E E E   +E  E E E E E E E
|---0-----0-----|-------0---0------|-0------0----------|-------------------|
|-----4-----4---|--------------4---|---4-------------3-|-(3)---------------|
|-7-----7-------|--7------7------7-|------7------3-----|-----3---3---3---3-|
|---------------|------------------|-----------7---7---|-------7---7---7---|
|---------------|------------------|-------------------|-------------------|
|---------------|------------------|-------------------|-------------------|
|
| PM                    PM|          PM        PM------------------------|
| E H       S S   +S  S E E Q.       E Q.      E Q   E    Q    E E E E E E
|---------------|------------------|-------------------|-------------------|
|---------------|------------------|-------------------|-------------------|
|---------------|------------------|-------------------|-------------------|
|---------------|------------------|-------------------|-------------------|
|-0---------0-0-|-(0)-0-0-0--------|-0---------0-----0-|-------0-0-0---0---|
|-0---------0-0-|-(0)-0-0-0--------|-0---------0-----0-|-------0-0-0---0---|


                                                                     2/4
                                   Gtr IV
                                   TPTPTPTP  TPTPTPTPTPTPTPTP
  E E E E E  E E E   +E  E E E E E S S S S   S S S S S S S S H        H
|------------------|-----------------------|------------------------|------||
|-3--------------3-|-(3)-------------------|------------------------|------||
|---3---3----3-----|-----3---3---3---------|------------------------|------||
|-----7---7----7---|-------7---7-----------|------------------------|------||
|------------------|---------------xSxSxSxS|=xSxSxSxSxSxSxSx--------|------||
|------------------|---------------xSxSxSxS|=xSxSxSxSxSxSxSx--------|------||
|
| PM----|        PM--------------------------------|         PM
| E E E E Q.     E    Q    E E E E E   E     E   S S Q       E Q.     H
|------------------|-----------------------|------------------------|------||
|------------------|-----------------------|------------------------|------||
|------------------|-----------------------|------------------------|------||
|------------------|-----------------------|------------------------|------||
|-0-0---0--------0-|-------0-0-0---0-------|-0---0-0---------0------|------||
|-0-0---0--------0-|-------0-0-0---0-------|-0---0-0---------0------|------||


   Breakdown
    Ebb5              Eb5                       Bb/D
   4/4
    Gtrs I, II
    PM----------------------------------------------------|
                      |-3-| |-3-| |-3-| |-3-|   |-3-| |-3-|
    E E E E E E E E   E E E E E E E E E E E E   Q Q Q Q Q Q
||------------------|-------------------------|--------------||
||o-----------------|-------------------------|-------------o||
||------------------|-------------------------|--------------||
||------------------|-------------------------|--------------||
||o-0-0-0-0-0-0-0-0-|-1-1-1-1-1-1-1-1-1-1-1-1-|-1-1-1-1-1-1-o||
||--1-1-1-1-1-1-1-1-|-2-2-2-2-2-2-2-2-2-2-2-2-|-0-0-0-0-0-0--||


  Fb5
  PM------------|
  E E E E E E E E   W
|-----------------|------||
|-----------------|------||
|-----------------|------||
|-----------------|------||
|-0-0-0-0-0-0-0-0-|------||
|-1-1-1-1-1-1-1-1-|------||


   Beatdown
    Ebb5
    PM--------------------------------------|
    E. E. S E. E. E.   S E. E. S E. S S S S S
||-------------------|-------------------------||
||o------------------|------------------------o||
||-------------------|-------------------------||
||-------------------|-------------------------||
||o-0--0--0-0--0--0--|-0-0--0--0-0--0-0-0-0-0-o||
||--1--1--1-1--1--1--|-1-1--1--1-1--1-1-1-1-1--||


    Gtrs I, II
     PM-----------------------------------------------------|
     E. E. S  E. E.   E.    S  E.     E.   S E.     S S S S S
||-----------------------|-------------------------------------||
||o----------------------|------------------------------------o||
||-----------------------|-------------------------------------||
||-----------------------|-------------------------------------||
||o--0--0--0--0--0----0--|--0--0------0----0-0------0-0-0-0-0-o||
||---1--1--1--1--1----1--|--1--1------1----1-1------1-1-1-1-1--||
|
|   Gtr III
|    Q.    Q.       Q      +E      E.    E E     E.   E   E
||-----------------------|-------------------------------------||
||o-10-----9-------------|--------10-----9------10----9-------o||
||------------------9----|-(9)-------------9--------------9----||
||-----------------------|-------------------------------------||
||o----------------------|------------------------------------o||
||-----------------------|-------------------------------------||


 "And I don't really gotta.."
  Original Tempo Q=126
  D5
  Gtrs I, II
  PM|   PM|   PM|   PM|   PM|   PM--|   PM|   PM|   PM------------|
  S S S S S S S S S S S S S S S S   S S S S S S S S S S S S S S S S
|---------------------------------|---------------------------------|
|---------------------------------|---------------------------------|
|---------------------------------|---------------------------------|
|---------------------------------|---------------------------------|
|-0-0---0-0---0-0---0-0---0-0---0-|-0---0-0---0-0---0-0-0-0-0-0-0-0-|
|-0-0---0-0---0-0---0-0---0-0---0-|-0---0-0---0-0---0-0-0-0-0-0-0-0-|


                                    N.C.
  PM|   PM|   PM|   PM|   PM----|
  S S S S S S S S S S S S S S S S   a E. E. E a E E E E
|---------------------------------|---------------------|
|---------------------------------|---------------------|
|---------------------------------|-2s3--2--------------|
|---------------------------------|---------3-----------|
|-0-0---0-0---0-0---0-0---0-0-0-0-|---------------------|
|-0-0---0-0---0-0---0-0---0-0-0-0-|-----------1s4-3-1-3-|


  S E S E S E S E S E S   E S E S E S S S S S S S S
|-----------------------|---------------------------|
|-----------------------|---------------------------|
|-----------------------|---------------------------|
|-----------------------|---------------------------|
|-----------------------|---------------------------|
|-0-0-0-0-0-0-0-0-0-0-0-|-0-0-0-0-0-0-0-0-0-0-0-0-0-|


                          Eb5   BbEb5
                                PM
  S E S E S E S E S E S   E. E. E E E E E
|-----------------------|-----------------|
|-----------------------|-----------------|
|-----------------------|-----------------|
|-----------------------|-1--1----1-1-1-1-|
|-----------------------|-1--1--1-1-1-1-1-|
|-0-0-0-0-0-0-0-0-0-0-0-|-1--1--0-1-1-1-1-|


  D5
  PM-----|    PM|     PM---------------|    PM-----|       PM--------|
  S S Q  E Q  E E   E S S Q  S E. Q    E Q  S S Q  E E   E E Q  S E. Q
|-----------------|------------------|-----------------|----------------||
|-----------------|------------------|-----------------|----------------||
|-----------------|------------------|-----------------|----------------||
|-----------------|------------------|-----------------|----------------||
|-0-0----0----0---|---0-0----0-0--0--|-0----0-0----0---|---0----0-0--0--||
|-0-0----0----0---|---0-0----0-0--0--|-0----0-0----0---|---0----0-0--0--||


   "Scratching" Outro
    D5N.C.        D5  N.C.          D5N.C.        D5N.C.          D5
   3/4                                                           2/4
    GtGtrs IV, V  GtrsGtrs IV, V    GtGtrs IV, V  GtGtrs IV, V    Gtrs I, II
    PM            PM|               PM            PM              PM---|
      |-3-| |-3-|     |-3-| |-3-|     |-3-| |-3-|   |-3-| |-3-|
    E S S S S S S S S S S S S S S   E S S S S S S E S S S S S S   S E. Q   4x
||--------------------------------|-----------------------------|----------||
||o-------------------------------|-----------------------------|---------o||
||----xSxSx-xSxSx-----xSxSx-xSxSx-|---xSxSx-xSxSx---xSxSx-xSxSx-|----------||
||----xSxSx-xSxSx-----xSxSx-xSxSx-|---xSxSx-xSxSx---xSxSx-xSxSx-|----------||
||o-0-xSxSx-xSxSx-0-0-xSxSx-xSxSx-|-0-xSxSx-xSxSx-0-xSxSx-xSxSx-|-0-0--0--o||
||--0-------------0-0-------------|-0-------------0-------------|-0-0--0---||


   3/4                     2/4
    PM---------------------------|
    Q.   Q.     Q.   Q.     S E. Q
||------------|-----------|----------||
||o-----------|-----------|---------o||
||------------|-----------|----------||
||------------|-----------|----------||
||o-0----0----|-0----0----|-0-0--0--o||
||--0----0----|-0----0----|-0-0--0---||


  Ebb5
 3/4                       2/4
  PM   PM     PM|    PM     PM-|
  E Q  E Q    S S Q  E Q    Q  Q
|-----------|-------------|-------|
|-----------|-------------|-------|
|-----------|-------------|-------|
|-----------|-------------|-------|
|-0----0----|-0-0----0----|-0--0--|
|-1----1----|-1-1----1----|-1--1--|


 3/4                       2/4
  PM   PM     PM   PM|      PM-|
  E Q  E Q    E Q  S S Q    Q  Q
|-----------|-------------|-------|
|-----------|-------------|-------|
|-----------|-------------|-------|
|-----------|-------------|-------|
|-0----0----|-0----0-0----|-0--0--|
|-1----1----|-1----1-1----|-1--1--|


  D5N.C.        D5N.C.          D5N.C.        D5N.C.          D5
 3/4                                                         4/4
  GtGtrs IV, V  GtGtrs IV, V    GtGtrs IV, V  GtGtrs IV, V    Gtrs I, II
  PM            PM              PM            PM              PM---|
    |-3-| |-3-|   |-3-| |-3-|     |-3-| |-3-|   |-3-| |-3-|
  E S S S S S S E S S S S S S   E S S S S S S E S S S S S S   S E. Q  E. Q  S
|-----------------------------|-----------------------------|-----------------*|
|-----------------------------|-----------------------------|-----------------*|
|---xSxSx-xSxSx---xSxSx-xSxSx-|---xSxSx-xSxSx---xSxSx-xSxSx-|-----------------*|
|---xSxSx-xSxSx---xSxSx-xSxSx-|---xSxSx-xSxSx---xSxSx-xSxSx-|---------0-------*|
|-0-xSxSx-xSxSx-0-xSxSx-xSxSx-|-0-xSxSx-xSxSx-0-xSxSx-xSxSx-|-0-0--0--0-------*|
|-0-------------0-------------|-0-------------0-------------|-0-0--0--0-------*|



Duration Legend
---------------
W - whole; H - half; Q - quarter; E - 8th; S - 16th; T - 32nd; X - 64th; a - acciaccatura
+ - note tied to previous; . - note dotted; .. - note double dotted
Uncapitalized letters represent notes that are staccato (1/2 duration)
Irregular groupings are notated above the duration line
Duration letters will always appear directly above the note/fret number it represents the
duration for.  Duration letters with no fret number below them represent rests.  Multi-
bar rests are notated in the form Wxn, where n is the number of bars to rest for.  Low
melody durations appear below the staff

Tablature Legend
----------------
 h   - hammer-on
 p   - pull-off
 b   - bend
 pb  - pre-bend
 r   - bend release (if no number after the r, then release immediately)
 /\  - slide into or out of (from/to "nowhere")
 s   - legato slide
 S   - shift slide
 - natural harmonic
[n]  - artificial harmonic
n(n) - tapped harmonic
 ~   - vibrato
 tr  - trill
 T   - tap
 TP  - trem. picking
 PM  - palm muting
\n/  - tremolo bar dip; n = amount to dip
 \n  - tremolo bar down
 n/  - tremolo bar up
/n\  - tremolo bar inverted dip
 =   - hold bend; also acts as connecting device for hammers/pulls
 <> - volume swell (louder/softer)
 x   - on rhythm slash represents muted slash
 o   - on rhythm slash represents single note slash

Misc Legend
-----------
 |  - bar
||  - double bar
||o - repeat start
o|| - repeat end
*|  - double bar (ending)
 :  - bar (freetime)
 $  - Segno
 &  - Coda
Tempo markers -  = BPM(8/16=s8/s16), where s8 = swing 8ths, s16 = swing 16ths



Добавлено: 22.04.2012
Другие материалы по этой песне:

Страница создана 22.04.2012
http://primanota.ru/emmure/i-only-mean-half-of-what-i-dont-say-chords.htm
Привет, Гость.
Предлагаем пройти революционный курс по гитаре.
Подарок от PrimaNota.Ru, забирай!