PrimaNota.ru - самый крупный в мире бесплатный архив песенных текстов, аккордов, табулатур и нот


Emil Bulls - Style School - текст песни, таба, видео

Регистрация Запомнить меня
Войти через:  Facebook Google Twitter Vk Yandex Mail.ru

Emil Bulls - Style School - текст песни, таба, видео

Печатать
Просмотров: 157
Artist: Emil Bulls
Song Title: Style School Acoustic
Album: The Life Acousitc
tabbed by: hainzei95

Tuning: Drop D

Intro/Verse:
e |-------------------|
B |-7/99-99-777777-55-|
G |-6/88-88-666666-44-|
D |-4/66-66-444444-22-|   12x
A |-------------------|
E |-------------------|

Pre Chorus:

e |------------------|
B |------------------|
G |-6/88-88-6666-444-|
D |-4/66-66-4444-222-|   4x
A |-4/66-66-4444-222-|
E |-4/66-66-4444-222-|

Chorus:

e |-------------------4444444444444444-|
B |-55555555----------5555555555555555-|
G |-44444444-88888888-6666666666666666-|
D |-22222222-66666666-6666666666666666-|     2x
A |-22222222-66666666-4444444444444444-|
E |-22222222-66666666------------------|

e |-------------------|
B |-55555555----------|
G |-44444444-88888888-|
D |-22222222-66666666-|    
A |-22222222-66666666-|
E |-22222222-66666666-|

Intro/Verse:
e |-------------------|
B |-7/99-99-777777-55-|
G |-6/88-88-666666-44-|
D |-4/66-66-444444-22-|   10x
A |-------------------|
E |-------------------|
Pre Chorus:

e |------------------|
B |------------------|
G |-6/88-88-6666-444-|    4x
D |-4/66-66-4444-222-|   
A |-4/66-66-4444-222-|
E |-4/66-66-4444-222-|

Chorus:

e |-------------------4444444444444444-|
B |-55555555----------5555555555555555-|
G |-44444444-88888888-6666666666666666-|
D |-22222222-66666666-6666666666666666-|     2x
A |-22222222-66666666-4444444444444444-|
E |-22222222-66666666------------------|

e |-------------------|
B |-55555555----------|
G |-44444444-88888888-|
D |-22222222-66666666-|    
A |-22222222-66666666-|
E |-22222222-66666666-|

Bridge:
e |-------------------|
B |-------------------|
G |-6--4-6--4-6-7-6-7-|
D |-6--4-6--4-6-7-6-7-|   8x
A |-4--2-4--2-4-5-4-5-|   
E |-------------------|


Chorus:

e |-------------------4444444444444444-|
B |-55555555----------5555555555555555-|
G |-44444444-88888888-6666666666666666-|
D |-22222222-66666666-6666666666666666-|     3x
A |-22222222-66666666-4444444444444444-|
E |-22222222-66666666------------------|

e |-------------------------------------|
B |-55555555----------------------------|
G |-44444444-88888888-6--4-6--4-6-7-6-7-|
D |-22222222-66666666-6--4-6--4-6-7-6-7-|     2x
A |-22222222-66666666-4--2-4--2-4-5-4-5-|
E |-22222222-66666666-------------------|

End:

e |-------------------4-----|
B |-------------------5---5-|
G |-44444444-88888888-6--6--|
D |-44444444-66666666-6-----|     
A |-22222222-66666666-4-----|
E |----------66666666-------|
Добавлено: 26.06.2012
Другие материалы по этой песне:
  • Аккорды и текст

Страница создана 26.06.2012
http://primanota.ru/emil-bulls/style-school-chords.htm
Привет, Гость.
Предлагаем пройти революционный курс по гитаре.
Подарок от PrimaNota.Ru, забирай!