PrimaNota.ru - самый крупный в мире бесплатный архив песенных текстов, аккордов, табулатур и нот


Emil Bulls - Wolfsstunde - таба, видео

Регистрация Запомнить меня
Войти через:  Facebook Google Twitter Vk Yandex Mail.ru

Emil Bulls - Wolfsstunde - таба, видео

Печатать
Просмотров: 40
Emil Bulls - Wolfsstunde (The Black Path) - Intro

Standard Tuning, Capo. fret 1


 f|-----------------------------------------------------------------|
 c|-----------------------------------------------------------------|
G#|-----0---------------0-------------------4---------0-------------|
D#|---2---2-4h5-2-----0---0-4h5-0---1-4-1-----4-1---2---2---4h5-2---|  x2
A#|-3-------------3-2-------------2-------2-------2-------2-------2-|
 F|-----------------------------------------------------------------|


 f|-----------------------------------------------------------------|
 c|---------------------------------------------------------0-------|
G#|-----0---------------0-------------------4-------------0---------|
D#|---2---2-4h5-2-----0---0-4h5-0---1-4-1-----4-1-------2-----------| 
A#|-3-------------3-2-------------2-------2-------2---2-------------|
 F|-------------------------------------------------0---------------|


************************************

| h   hammer-on

************************************
Добавлено: 24.12.2015
Другие материалы по этой песне:

Страница создана 24.12.2015
http://primanota.ru/emil-bulls/wolfsstunde-chords.htm
Привет, Гость.
Предлагаем пройти революционный курс по гитаре.
Подарок от PrimaNota.Ru, забирай!