PrimaNota.ru - самый крупный в мире бесплатный архив песенных текстов, аккордов, табулатур и нот


Emil Bulls - Revenge - таба, видео

Регистрация Запомнить меня
Войти через:  Facebook Google Twitter Vk Yandex Mail.ru

Emil Bulls - Revenge - таба, видео

Печатать
Просмотров: 208
Artist:    Emil Bulls
Song:      Revenge Acoustic
Album:     The Life Acoustic
Tabbed by: hainzei95

Tuning: Drop D

Chords:

   E  C  D  B  Em7
e  x  x  x  x  x
B  x  x  x  x  6
G  4  5  7  4  9
D  2  5  7  4  9
A  2  3  5  2  7
D  2  x  x  x  0

Intro:

e|-----------0-0-0-0-0-0-0-0-0-0-0-0-0-0-0-0---|
B|------------0-0-0-1-1-1-1-3-3-3-3-3-3-3-3----|
G|---------------------------------------------|
D|---------------------------------------------|
A|---------------------------------------------|
D|-9-7-5-4-2-----------------------------------|

e|-----------0-0-0-0-0-0-0-0-0-0-0-0-0-0-0-0---|
B|----------0-0-0-0-1-1-1-1-3-3-3-3-3-3-3-3----|

Verse:
e|-----------0-0-0-0-0-0-0-0-0-0-0-0-0-0-0-0---|  x2
B|----------0-0-0-0-1-1-1-1-3-3-3-3-3-3-3-3----|

Chorus:

e|---------------------------------------------|
B|---------------------------------------------|
G|---------44444444-55555555/77777777\44444444-|
D|---------22222222-55555555/77777777\44444444-|
A|---------22222222-33333333/55555555\22222222-|
D|-9-7-5-4-22222222----------------------------|

e|--------------------------------------|
B|--------------------------------------|
G|--44444444-55555555/7777777777777777--|
D|--22222222-55555555/7777777777777777--|
A|--22222222-33333333/5555555555555555--|
D|--22222222----------------------------|

Verse2:

e|-----------0-0-0-0-0-0-0-0-0-0-0-0-0-0-0-0---|  x5
B|----------0-0-0-0-1-1-1-1-3-3-3-3-/-5-5-5----|

Chorus:

e|-----------------------------------------------|
B|-----------------------------------------------|
G|-----------44444444-55555555/77777777\44444444-|
D|-----------22222222-55555555/77777777\44444444-|  x3
A|-----------22222222-33333333/55555555\22222222-|
D|-(9-7-5-4)-22222222----------------------------|

e|--------------------------------------|
B|--------------------------------------|
G|--44444444-55555555/7777777777777777--|
D|--22222222-55555555/7777777777777777--|
A|--22222222-33333333/5555555555555555--|
D|--22222222----------------------------|


Verse3:

e|-----------0-0-0-0-0-0-0-0-0-0-0-0-0-0-0-0---|  x5
B|----------0-0-0-0-1-1-1-1-3-3-3-3-/-5-5-5----|

Chorus:

e|-----------------------------------------------|
B|-----------------------------------------------|
G|-----------44444444-55555555/77777777\44444444-|
D|-----------22222222-55555555/77777777\44444444-|  x3
A|-----------22222222-33333333/55555555\22222222-|
D|-(9-7-5-4)-22222222----------------------------|

e|--------------------------------------|
B|--------------------------------------|
G|--44444444-55555555/7777777777777777--|
D|--22222222-55555555/7777777777777777--|
A|--22222222-33333333/5555555555555555--|
D|--22222222----------------------------|

Bridge:

e|------------------------------|
B|----------------------/66-666-|
G|--44-444/55-555/77-777/99-999-|
D|--22-222/55-555/77-777/99-999-|   x4
A|--22-222/33-333/55-555/77-777-|
D|------------------------------|

Chorus x2:

e|-----------------------------------------------|
B|-----------------------------------------------|
G|-----------44444444-55555555/77777777\44444444-|
D|-----------22222222-55555555/77777777\44444444-|  x3
A|-----------22222222-33333333/55555555\22222222-|
D|-(9-7-5-4)-22222222----------------------------|

e|--------------------------------------|
B|--------------------------------------|
G|--44444444-55555555/7777777777777777--|
D|--22222222-55555555/7777777777777777--|
A|--22222222-33333333/5555555555555555--|
D|--22222222----------------------------|

Outro:


e|-----------0-0-0-0-0-0-0-0-0-0-0-0-0-0-0-0---|  x2
B|----------0-0-0-0-1-1-1-1-3-3-3-3-3-3-3-3----|


e|-------------|
B|----------5~-|
G|----------4~-|
D|----------2~-|
A|----------2~-|
D|-9-7-5-4--2~-|
Добавлено: 21.07.2012
Другие материалы по этой песне:
  • Аккорды и текст

Страница создана 21.07.2012
http://primanota.ru/emil-bulls/revenge-chords.htm
Привет, Гость.
Предлагаем пройти революционный курс по гитаре.
Подарок от PrimaNota.Ru, забирай!