PrimaNota.ru - самый крупный в мире бесплатный архив песенных текстов, аккордов, табулатур и нот


Elton John - No Valentines - аккорды и текст, видео

Регистрация Запомнить меня
Войти через:  Facebook Google Twitter Vk Yandex Mail.ru

Elton John - No Valentines - аккорды и текст, видео

Печатать
Просмотров: 60
Уроки эстрадного вокала в Санкт-Петербурге
No Valentines
Elton John
[Chords Used]

   C      C7     Fm6/C  Am     Am/G   Em7
e|-0------0------0------0------0------0----|
B|-1------1------3------1------1------0----|
G|-0------3------1------2------2------1----|
D|-2------2------3------2------2------0----|
A|-3------3------3------0------0------2----|
E|-----------------------------3------0----|

   F      Bb7    Eb     Bb/D   Cm     Gm/Bb
e|-1------1------3------1------3------3----|
B|-1------3------4------3------4------3----|
G|-2------1------4------3------5------0----|
D|-3------3------1------0------5------0----|
A|-3------1--------------------3------1----|
E|-1----------------------------------0----|

   Ab     Gsus   G7
e|-4------3------1------|
B|-4------1------0------|
G|-5------0------0------|
D|-6------0------0------|
A|-6------0------2------|
E|-4------3------3------|


[Riff]

   C                  Fm6/C
e|------------------|------------------|
B|------------------|------------------|
G|-----0--------0---|-----1-0----------|
D|---2--------2-----|---3-----3--------|
A|-3-----3--------3-|-3----------------|
E|------------------|------------------|


[Intro]

Riff x 2 (or C - C7 - Fm6/C)


[Verse]

C                   Fm6/C
No more Valentine's day
C                 Fm6/C
No more Christmas cards
                 Am
I've thrown them all away 
Am/G                   F
No more sequined stars
  E7            Am  E7
No birthday wis-hes, 
            Am     E7
No more sur-prises
                  F 
Who needs them an-y-way? 
                     Bb7
No reason to get exc-i-ted


[Verse 2]

C                     Fm6/C
Yes, I gave you every-thing
C                    Fm6/C
I gave you earth and sky
               Am           
And everything in between 
Am/G                    F
That walks or crawls or flies
  E7      Am       E7
No Easter mornings, 
                Am  E7
It's your cross now
         F
Keep it all for yourself 
               Bb7
It's overrated anyhow


[Chorus]

            Eb         Bb/D
But keep my Valentine, 
                   Cm        Gm/Bb
I'll keep my bleed-ing heart
            Ab
Just let me out of here 
             Gsus       G7
Before that sentimental music starts
                 Eb Bb/D
And your regrets 
                     Cm Gm/Bb
Fall like empty lines
                       Ab
Like the lies we write 

   Gsus G7    C C7 Fm6/C  (or riff twice)
On Va - len - tines


[Instrumental]

Am - Am/G - F - E7 - Am - E7 - F - Bb7


[Chorus]

            Eb         Bb/D
But keep my Valentine
                   Cm        Gm/Bb
I'll keep my bleed-ing heart
            Ab
Just let me out of here 
             Gsus       G7
Before that sentimental music starts
                 Eb Bb/D
And your regrets 
                     Cm Gm/Bb
Fall like empty lines
                       Ab
Like the lies we write 
   Gsus G7    C C7 Fm6/C  (or riff twice)
On Va - len - tines


[Outro]

Riff x 3 (or C - C7 - Fm6/C)
C
Добавлено: 17.11.2017
Другие материалы по этой песне:
  • Аккорды и текст

Страница создана 09.04.2012
http://primanota.ru/elton-john/no-valentines-chords.htm
Привет, Гость.
Предлагаем пройти революционный курс по гитаре.
Подарок от PrimaNota.Ru, забирай!