PrimaNota.ru - самый крупный в мире бесплатный архив песенных текстов, аккордов, табулатур и нот


Elton John - One Horse Town - текст песни, таба, видео

Регистрация Запомнить меня
Войти через:  Facebook Google Twitter Vk Yandex Mail.ru

Elton John - One Horse Town - текст песни, таба, видео

Печатать
Просмотров: 192
Уроки эстрадного вокала в Санкт-Петербурге
Nice little solo from Davey Johnstone, taken  from the Blue Moves album of 1976. 
Any comments , good or bad are always welcome.

TAB Legend:

h       - Hammer-on 
p       - Pull-off
b       - Bend note 
r       - Return from bend
s       - Slide
~       - Vibrato



e|-------------------------------------|----------------------------------------------|
B|-17b19-17b19-17b19-17-15-17-15-------|-10b12r10-7-10-7---7--------------------------|
G|-------------------------------16-16-|-----------------9---9b11-9b11-9-7-9-7-9b11-9-|
D|-------------------------------------|----------------------------------------------|
A|-------------------------------------|----------------------------------------------|
E|-------------------------------------|----------------------------------------------|


e|----------------------------------|-----------------------------------------|
B|-------------------8--------------|-----------------------------------------|
G|-----5-7-5---5-7b9---r7-5---5-5---|-----7-9b11-11-11-11-11-11-11-11r9-7---7-|
D|-5-7-------7--------------7-----7-|-7s9---------------------------------9---|
A|----------------------------------|-----------------------------------------|
E|----------------------------------|-----------------------------------------|


e|---------------------|------------------------------------|
B|---------------------|-11-11-11--10-10-10--9-9-9--7--5--4-|
G|-9b11-11r9-7---7-7-7-|-11-11-11--10-10-10--9-9-9--7--5--4-|
D|-------------9-------|-11-11-11--10-10-10--9-9-9--7--5--4-|
A|---------------------|------------------------------------|
E|---------------------|------------------------------------|


e|----------------------------------------------------|------------------------------|
B|-17b19-17b19-17b19-17b19-17b19-17b19-17b19r17-15----|-10b12-12r10-7-10-7---7-7-7---|
G|-------------------------------------------------16-|--------------------9-------9-|
D|----------------------------------------------------|------------------------------|
A|----------------------------------------------------|------------------------------|
E|----------------------------------------------------|------------------------------|


e|------------------------------------------------------|
B|------------------------------------------------------|
G|-----5-7-5---5------5-5-5-5------5-5-5-5------5-5-5-5-|
D|-5-7-------7----5s7----------5s7----------5s7---------|
A|------------------------------------------------------|
E|------------------------------------------------------|


e|------------------------------------|---------------------------------|
B|------------------10----------------|-11-11-11--10-10-10--9-9-9--7--5-|
G|-----7-7-7-7-9b11----11r9-7---------|-11-11-11--10-10-10--9-9-9--7--5-|
D|-5s7------------------------9-7-----|-11-11-11--10-10-10--9-9-9--7--5-|
A|--------------------------------9s5-|---------------------------------|
E|------------------------------------|---------------------------------|
Добавлено: 02.04.2012
Другие материалы по этой песне:
  • Аккорды и текст

Страница создана 06.03.2012
http://primanota.ru/elton-john/one-horse-town-chords.htm
Привет, Гость.
Предлагаем пройти революционный курс по гитаре.
Подарок от PrimaNota.Ru, забирай!