PrimaNota.ru - самый крупный в мире бесплатный архив песенных текстов, аккордов, табулатур и нот


Element Eighty - Itch - текст песни, таба, бас-таба, видео

Регистрация Запомнить меня
Войти через:  Facebook Google Twitter Vk Yandex Mail.ru

Element Eighty - Itch - текст песни, таба, бас-таба, видео

Печатать
Просмотров: 362
Уроки эстрадного вокала в Санкт-Петербурге
Element Eighty: The Itch

Transcribed by: mysticguitar77

YouTube Username: MysticGuitar77

Date last modified: August 2, 2013

Tuning: Drop C# (C#,G#,C#,F#,A#,D#)

D#|--------------------------------------------|
A#|--------------------------------------------|
F#|---------------------------------------5555-|
C#|-----------------------3------0------1-xxxx-|
G#|----0----------0---3-3-3--0-0-0--1-1-1-3333-|
C#|-0000-------0000---3-3-3--0-0-0--1-1-1------|
    ****       ****   * *    * *    * *

D#|------------------------------------------------|
A#|------------------------------------------------|
F#|------------------------------------------------|
C#|-----------------------5------0-----------------|
G#|----0----------0---5-5-5--0-0-0--1-1-1--3ph-\\\-|
C#|-0000-------0000---5-5-5--0-0-0--1-1-1------\\\-|
    ****       ****   * *    * *    * * *

          "Look at my face again..."
D#|-----------------------------------|
A#|-----------------------------------|
F#|-----------------------------------|
C#|-------------10-10-10-10-10-10-9-9-|
G#|-0-0-6-6-0-0-8--8--8--8--8--8--7-7-|
C#|-0-0-6-6-0-0-----------------------|
    * * * * * * *  *  *  *  *  *  * *

          "Cause I have suffered..."
D#|-----------------------|
A#|-----------------------|
F#|------------------10\9-|
C#|------------------x--x-|
G#|-7-8-7-8-7----0-0-8\\7-|
C#|-7-8-7-8-7----0-0------|
    * * * * *    * *

          "Only to lose you now..."
D#|-----------------------------------|
A#|-----------------------------------|
F#|-----------------------------------|
C#|-7-7---------10-10-10-10-10-10-9-9-|
G#|-5-5-6-6-0-0-8--8--8--8--8--8--7-7-|
C#|-----6-6-0-0-----------------------|
    * * * * * * *  *  *  *  *  *  * *

          "From all the pain..."
D#|---------------------------|
A#|---------------------------|
F#|------------------10//-----|
C#|------------------x--------|
G#|-7-8-7-8-7----0-0-8///-\\\-|
C#|-7-8-7-8-7----0-0------\\\-|
    * * * * *    * *

          "...that you caused me, you are the death of me..."
D#|--------------------------------|
A#|--------------------------------|
F#|--------------------------------|
C#|-7-----10----9------------------|
G#|-5-6-0-8-----7--0-0-8---7---8-7-|
C#|---6-0----------0-0-8---7---8-7-|
                   * * 

          "I know you'll be the death of me..."
D#|-----------------------------------|
A#|-----------------------------------|
F#|-------------------------------14\-|
C#|-7-------10----9---------------x---|
G#|-5-6-0-0-8-----7--0-0-8---10---12\-|
C#|---6-0-0----------0-0-8---10-------|
        * *          * *

          "I never wanted this to ever..."
D#|----------------------------------------------------------------|
A#|----------------------------------------------------------------|
F#|----------------------------------------------------------------|
C#|----------------------------------------------------------------|
G#|----------------------------8ph-----------------------------8p0-|
C#|-0--x-5*--x-0---10-9-0-9-10------0--x-5*--x-0---10-9-0-9-10-----|
                   *  * * * *                      *  * * * *

          "...end!!"
D#|------------------------------------|
A#|------------------------------------|
F#|-7----------7----------7----------7-|
C#|-6----------6----------6----------6-|
G#|-5----------5-0--0-0-0-5-0--0-0-0-5-|
C#|---0--0-0-0---0--0-0-0---0--0-0-0---|
                 *  * * *   *  * * *

          "Cause I breakdown..."
D#|----------------------------|
A#|----------------------------|
F#|------------------------7-5-|
C#|-9h10--------------0----x-x-|
G#|------8--0-0--0--0-0--0-5-3-|
C#|---------0-0--0--0-0--0-----|
            * *  *  *    *

          "From everything that I can't believe..."
D#|--------------------------------|
A#|--------------------------------|
F#|--------------------------------|
C#|-8---12---7----7\---------------|
G#|-8-8-8--8-7--7-7\---------------|
C#|-8-8-8--8-7--7-7\--0--x-5*--x-0-|
      *    *

          "I know I'll make it on my own..."
D#|----------------------------|
A#|----------------------------|
F#|----------------------------|
C#|----------------8---12---11-|
G#|-------------8--8-8-8--8-7--|
C#|-10-9-0-9-10----8-8-8--8-7--|
                     *    *

          "So if you give it back to me..."
D#|---------------------------|
A#|---------------------------|
F#|---------------------------|
C#|-------------------------0-|
G#|-8-7-5-7-5-7-5-0-0--0--0-0-|
C#|-8-7-5-7-5-7-5-0-0--0--0-0-|
    * * * * * * * * *  *  *

          "Then I will go alone..."
D#|--------------------|
A#|--------------------|
F#|---7\5-10--7--9--9\-|
C#|---x-x-x---x--x--x--|
G#|-0-5\3-8---5--7--7\-|
C#|-0------------------|
    *

          "With the pain you've caused me..."
D#|--------------------------------------------------------|
A#|--------------------------------------------------------|
F#|-------7-----9-----9-----9ph-----------------7-/-19-\-7-|
C#|-5/7-7---7-7---7-7---7-7----------------0----x---x----x-|
G#|------------------------------8-7--5--3-0----5-/-17-\-5-|
C#|------------------------------8-7--5--3-0---------------|
        *   * *   * *   * *

D#|-------------------------------------------------|
A#|-------------------------------------------------|
F#|-------------------------------------------------|
C#|-------------------------------------------------|
G#|-5-5---------8ph-8ph-8ph-8ph-8ph-8ph-7ph-7ph-7ph-|
C#|-----6-6-0-0-------------------------------------|
    * * * * * *

D#|-----------------------------|
A#|-----------------------------|
F#|-----------------------------|
C#|-8-8-8-8-8-8-7-7-7-7-8-8-7-7-|
G#|-----------------------------|
C#|-----------------------------|
    * * * * * * * * * * * * * *

D#|-------------------------------------------------|
A#|-------------------------------------------------|
F#|-------------------------------------------------|
C#|-------------------------------------------------|
G#|-5-5---------8ph-8ph-8ph-8ph-8ph-8ph-7ph-7ph-7ph-|
C#|-----6-6-0-0-------------------------------------|
    * * * * * *

            "Just look into my eyes..."
D#|----------------------------------|
A#|----------------------------------|
F#|----------------------------------|
C#|-8-8-8-8-8-8-7-7------------------|
G#|----------------------------------|
C#|-----------------7-77\66\55\44\33-|
    * * * * * * * * * **************

            "...and you'll always know..."
D#|-----------------------------------|
A#|-----------------------------------|
F#|-----------------------------------|
C#|-------------10-10-10-10-10-10-9-9-|
G#|-0-0-6-6-0-0-8--8--8--8--8--8--7-7-|
C#|-0-0-6-6-0-0-----------------------|
    * * * * * * *  *  *  *  *  *  * *

            "That I have suffered..."
D#|-----------------------|
A#|-----------------------|
F#|------------------10\9-|
C#|------------------x--x-|
G#|-7-8-7-8-7----0-0-8\\7-|
C#|-7-8-7-8-7----0-0------|
    * * * * *    * *

             "Only to take the fall..."
D#|-----------------------------------|
A#|-----------------------------------|
F#|-----------------------------------|
C#|-7-7---------10-10-10-10-10-10-9-9-|
G#|-5-5-6-6-0-0-8--8--8--8--8--8--7-7-|
C#|-----6-6-0-0-----------------------|
    * * * * * * *  *  *  *  *  *  * *

             "From all the pain..."
D#|---------------------------|
A#|---------------------------|
F#|------------------10//-----|
C#|------------------x--------|
G#|-7-8-7-8-7----0-0-8///-\\\-|
C#|-7-8-7-8-7----0-0------\\\-|
    * * * * *    * *

             "...that you caused me, you are the death of me..."
D#|--------------------------------|
A#|--------------------------------|
F#|--------------------------------|
C#|-7-----10----9------------------|
G#|-5-6-0-8-----7--0-0-8---7---8-7-|
C#|---6-0----------0-0-8---7---8-7-|
                   * * 

              "I know you'll be the death of me..."
D#|-----------------------------------|
A#|-----------------------------------|
F#|-------------------------------14\-|
C#|-7-------10----9---------------x---|
G#|-5-6-0-0-8-----7--0-0-8---10---12\-|
C#|---6-0-0----------0-0-8---10-------|
        * *          * *

              "I never wanted this to ever..."
D#|----------------------------------------------------------------|
A#|----------------------------------------------------------------|
F#|----------------------------------------------------------------|
C#|----------------------------------------------------------------|
G#|----------------------------8ph-----------------------------8p0-|
C#|-0--x-5*--x-0---10-9-0-9-10------0--x-5*--x-0---10-9-0-9-10-----|
                                                   *  * * * *

              "...end!!"
D#|------------------------------------|
A#|------------------------------------|
F#|-7----------7----------7----------7-|
C#|-6----------6----------6----------6-|
G#|-5----------5-0--0-0-0-5-0--0-0-0-5-|
C#|---0--0-0-0---0--0-0-0---0--0-0-0---|
                 *  * * *   *  * * *

              "Cause I breakdown..."
D#|----------------------------|
A#|----------------------------|
F#|------------------------7-5-|
C#|-9h10--------------0----x-x-|
G#|------8--0-0--0--0-0--0-5-3-|
C#|---------0-0--0--0-0--0-----|
            * *  *  *    *

              "From everything that I can't believe..."
D#|--------------------------------|
A#|--------------------------------|
F#|--------------------------------|
C#|-8---12---7----7\---------------|
G#|-8-8-8--8-7--7-7\---------------|
C#|-8-8-8--8-7--7-7\--0--x-5*--x-0-|
      *    *

              "I know I'll make it on my own..."
D#|----------------------------|
A#|----------------------------|
F#|----------------------------|
C#|----------------8---12---11-|
G#|-------------8--8-8-8--8-7--|
C#|-10-9-0-9-10----8-8-8--8-7--|
                     *    *

               "So if you give it back to me..."
D#|---------------------------|
A#|---------------------------|
F#|---------------------------|
C#|-------------------------0-|
G#|-8-7-5-7-5-7-5-0-0--0--0-0-|
C#|-8-7-5-7-5-7-5-0-0--0--0-0-|
    * * * * * * * * *  *  *

                "Then I will go alone..."
D#|--------------------|
A#|--------------------|
F#|---7\5-10--7--9--9\-|
C#|---x-x-x---x--x--x--|
G#|-0-5\3-8---5--7--7\-|
C#|-0------------------|
    *

                "With the pain you've caused me..."
D#|------------------------------------------|
A#|------------------------------------------|
F#|-------7-----9-----9-----9ph--------------|
C#|-5/7-7---7-7---7-7---7-7----------------0-|
G#|------------------------------8-7--5--3-0-|
C#|------------------------------8-7--5--3-0-|
        *   * *   * *   * *

                "Give it back to me!!"
D#|---------------------------------|
A#|---------------------------------|
F#|----------------------------5555-|
C#|-------------------3--0--1--xxxx-|
G#|----0-----------0--3--0--1--3333-|
C#|-0000--------0000--3--0--1-------|
    ****        ****

D#|-----------------------------------------------|
A#|-----------------------------------------------|
F#|------------------------------------------5555-|
C#|-------------------------5------0------1--xxxx-|
G#|----0------0------0--5-5-5--0-0-0--1-1-1--3333-|
C#|-0000---0000---0000--5-5-5--0-0-0--1-1-1-------|
    ****   ****   ****  * *    * *    * *

D#|-----------------------------------------------|
A#|-----------------------------------------------|
F#|------------------------------------------5555-|
C#|------------------------------------------xxxx-|
G#|----0------0------0--3-3-3--0-0-0--1-1-1--3333-|
C#|-0000---0000---0000--3-3-3--0-0-0--1-1-1-------|
    ****   ****   ****  * * *  * * *  * * *

              "Give it back to me!!"
D#|----------------------------4*4*4*-|
A#|----------------------------4*4*4*-|
F#|----------------------------4*4*4*-|
C#|-------------------5--0--1---------|
G#|----0-----------0--5--0--1---------|
C#|-0000--------0000--5--0--1---------|
    ****        ****

D#|------------------------------------|
A#|------------------------------------|
F#|-7----------7----------7----------7-|
C#|-6----------6----------6----------6-|
G#|-5----------5----------5----------5-|
C#|---0--0-0-0---0--0-0-0---0--0-0-0---|

             "Just give it back to me..."
D#|------------------------------------|
A#|------------------------------------|
F#|-7----------7----------7----------7-|
C#|-6----------6----------6----------6-|
G#|-5----------5-0--0-0-0-5-0--0-0-0-5-|
C#|---0--0-0-0---0--0-0-0---0--0-0-0---|
                 *  * * *   *  * * *

              "Cause I breakdown..."
D#|----------------------------|
A#|----------------------------|
F#|------------------------7-5-|
C#|-9h10--------------0----x-x-|
G#|------8--0-0--0--0-0--0-5-3-|
C#|---------0-0--0--0-0--0-----|
            * *  *  *    *

              "From everything I can't believe..."
D#|--------------------------------|
A#|--------------------------------|
F#|--------------------------------|
C#|-8---12---7----7\---------------|
G#|-8-8-8--8-7--7-7\---------------|
C#|-8-8-8--8-7--7-7\--0--x-5*--x-0-|
      *    *

              "I know I'll make it on my own..."
D#|----------------------------|
A#|----------------------------|
F#|----------------------------|
C#|----------------8---12---11-|
G#|-------------8--8-8-8--8-7--|
C#|-10-9-0-9-10----8-8-8--8-7--|
                     *    *

              "So if you give it back to me..."
D#|---------------------------|
A#|---------------------------|
F#|---------------------------|
C#|-------------------------0-|
G#|-8-7-5-7-5-7-5-0-0--0--0-0-|
C#|-8-7-5-7-5-7-5-0-0--0--0-0-|
    * * * * * * * * *  *  *

              "Then I will go alone..."
D#|--------------------|
A#|--------------------|
F#|---7\5-10--7--9--9\-|
C#|---x-x-x---x--x--x--|
G#|-0-5\3-8---5--7--7\-|
C#|-0------------------|
    *

              "With the pain you've caused me..."
D#|------------------------------------------|
A#|------------------------------------------|
F#|-------7-----9-----9-----9ph--------------|
C#|-5/7-7---7-7---7-7---7-7----------------0-|
G#|------------------------------8-7--5--3-0-|
C#|------------------------------8-7--5--3-0-|
        *   * *   * *   * *

              "The pain you've caused me!!"
D#|-----------------------------------------------|
A#|-----------------------------------------------|
F#|-------7-----9~---9ph---------------7-/-19-\-7-|
C#|-5/7-7---7-7---------------------0--x---x----x-|
G#|-----------------------8-7--5--3-0--5-/-17-\-5-|
C#|-----------------------8-7--5--3-0-------------|
        *   * *

Enjoy!!
Добавлено: 18.11.2013
Другие материалы по этой песне:

Страница создана 04.03.2012
http://primanota.ru/element-eighty/itch-chords.htm
Привет, Гость.
Предлагаем пройти революционный курс по гитаре.
Подарок от PrimaNota.Ru, забирай!