PrimaNota.ru - самый крупный в мире бесплатный архив песенных текстов, аккордов, табулатур и нот


Element Eighty - Dummy Block - текст песни, таба, видео

Регистрация Запомнить меня
Войти через:  Facebook Google Twitter Vk Yandex Mail.ru

Element Eighty - Dummy Block - текст песни, таба, видео

Печатать
Просмотров: 252
DUMMY BLOCK-ELEMENT EIGHTY

Intro
D#|-------|-------------------------------------------------------|
A#|-------|-----15-------15-----15-------14----14-----14----------|
F#|-------|-------------------------------------------------------|
C#|-------|-----12-------12-----12-------11----11-----11----------|
G#|--0--0-|--0-------0-0-----00-----0-0-----00----0-0-------------|
C#|--0--0-|--0-------0-0-----00-----0-0-----00----0-0----0--------|
     .  .    .       . .     ..     . .     ..    . .    .

RIFF 1
D#|--------------------|
A#|--------------------|
F#|--------------------|
C#|--------------------|
G#|---55--3-5-6-5-3-5--|
C#|--------------------|

RIFF2
D#|---------------------------------------------------------------|
A#|---------------------------------------------------------------|
F#|---------------------------------------------------------------|
C#|--12----12----12----12----12----12---11----11v--11-----11V-----|
G#|---------------------------------------------------------------|
C#|-----00----00----0-----00----00----0----00---------00----------|
        ..    ..    .     ..    ..    .    ..         ..


D#|------------------------------------------------------------------|
A#|------------------------------------------------------------------|
F#|------------------------------------------------------------------|
C#|--12----12----12----12----12----12---11----11v--------------------|
G#|--------------------------------------------------55--3-5-6-5-3-5-|
C#|-----00----00----0-----00----00----0----00------------------------|
        ..    ..    .     ..    ..    .    ..

RIFF3
D#|----------------------------------------------------------------|
A#|-----15-------15-----15-------14----14-----14----14-----14------|
F#|----------------------------------------------------------------|
C#|-----12-------12-----12-------11----11-----11----11-----11------|
G#|--0-------0-0-----00-----0-0-----00----0-0----00----0-0---------|
C#|--0-------0-0-----00-----0-0-----00----0-0----00----0-0---------|
     .       . .     ..     . .     ..    . .    ..    . .


D#|-----------------------------------------------------------------|
A#|------15-------15-----15-------14----14-----14----14-----14------|
F#|-----------------------------------------------------------------|
C#|------12-------12-----12-------11----11-----11----11-----11------|
G#|--00-------0-0-----00-----0-0-----00----0-0----00----0-0---------|
C#|--00-------0-0-----00-----0-0-----00----0-0----00----0-0---------|
     ..       . .     ..     . .     ..    . .    ..    . .

RIFF2  X1
RIFF3  X1
RIFF2  X1
RIFF3  X1

RIFF4
D#|------------------------------------------------------------|
A#|------------------------------------------------------------|
F#|------------------------------------------------------------|
C#|------------------------------------------------------------|
G#|-00--00---00--00---00--00--00--00--0000---------------------|
C#|-00--00---00--00---00--00--00--00--0000---------------------|
    ..  ..   ..  ..   ..  ..  ..  ..  ....


D#|------------------------------------------------------------|
A#|------------------------------------------------------------|
F#|------------------------------------------------------------|
C#|------------------------------------------------------------|
G#|--00000--00000--00000-00000-0000----------------------------|
C#|--00000--00000--00000-00000-0000----------------------------|
     .....  .....  ..... ..... ....



RIFF5
D#|------------------------------------------------------------|
A#|------------------------------------------------------------|
F#|-------7-----------------6*--------10------------------9*---|
C#|---------7-------------6--------------10-------------9------|
G#|-00000-----5--00000--4------00000--------8--00000--7--------|
C#|-00000--------00000---------00000-----------00000-----------|



D#|------------------------------------------------------------|
A#|------------------------------------------------------------|
F#|-------77---------------66--------1010------------------9b--|
C#|---------77-----------66--------------1010------------99----|
G#|-00000-----55-00000-44------00000---------88--00000-77------|
C#|-00000--------00000---------00000-------------00000---------|


RIFF3  X1


RIFF6
D#|--------------------------------------------------------------|
A#|--------------------------------------------------------------|
F#|-77-----77----77-----------66----66----66---------------------|
C#|---77-----77----7---X2-------66----66----6---X2---------------|
G#|-----55-----55-----------------44----44-----------------------|
C#|--------------------------------------------------------------|


D#|--------------------------------------------------------------|
A#|--------------------------------------------------------------|
F#|-77-----77----77-----------66----66----66---------------------|
C#|---77-----77----7---X2-------66----66----6--------------------|
G#|-----55-----55-----------------44----44-------3-2-0-----------|
C#|----------------------------------------------3-2-0--X5-------|

[SOLO]

RIFF7
D#|--------------------------------------------------------------|
A#|-15-------15-------15--15-------15-------15--14--------14v----|
F#|----14-------14-----------14-------14-----------13------------|
C#|-------12-------12-----------12-------12-----------11---------|
G#|--------------------------------------------------------------|
C#|--------------------------------------------------------------|

RIFF1  X1

RIFF3  X2

RIFF1  X1
Добавлено: 15.07.2012
Другие материалы по этой песне:

Страница создана 28.05.2012
http://primanota.ru/element-eighty/dummy-block-chords.htm
Привет, Гость.
Предлагаем пройти революционный курс по гитаре.
Подарок от PrimaNota.Ru, забирай!