PrimaNota.ru - самый крупный в мире бесплатный архив песенных текстов, аккордов, табулатур и нот


Element Eighty - Painmaker - текст песни, таба, видео

Регистрация Запомнить меня
Войти через:  Facebook Google Twitter Vk Yandex Mail.ru

Element Eighty - Painmaker - текст песни, таба, видео

Печатать
Просмотров: 210
-------------------------------------------------------------------------------
                             Painmaker - Element Eighty
-------------------------------------------------------------------------------
Tabbed by: Nathan Chamberlin
Email: chamberlinn@aol.com

Tuning: Drop Db

e|---------------------------------------------------------------------------|
B|---------------------------------------------------------------------------|
G|---------------------------------------------------------------------------|
D|-------0---0-0---0-0---0-0---0-2-3-2-1-0---0-0---0-0---0-0---0-2-3-2-1-----|
A|--/PS\-0-5-0-0-3-0-0-2-0-0-1-0-2-3-2-1-0-5-0-0-3-0-0-2-0-0-1-0-2-3-2-1-----|
E|-------0---0-0---0-0---0-0---0-2-3-2-1-0---0-0---0-0---0-0---0-2-3-2-1-----|
p.m.     .   . .   . .   . .   . . . . . .   . .   . .   . .   . . . . .

e|---------------------------------------------------------------------------|
B|---------------------------------------------------------------------------|
G|---------------------------------------------------------------------------|
D|--0-12-10-0-10-9-0-9-8-0-8-7-2-3-2-1-0---0-0---0-0---0-0---0-2-3-2-1-------|
A|--0-12-10-0-10-9-0-9-8-0-8-7-2-3-2-1-0-5-0-0-3-0-0-2-0-0-1-0-2-3-2-1-------|
E|--0-12-10-0-10-9-0-9-8-0-8-7-2-3-2-1-0---0-0---0-0---0-0---0-2-3-2-1-------|
p.m.. .  .  . .  . . . . . . . . . . . .   . .   . .   . .   . . . . .

e|---------------------------------------------------------------------------|
B|---------------------------------------------------------------------------|
G|-------5----7---8-7---5/7--5/7------5----7---8-7---5--5--------------------|
D|--0-00-X-00-X-0-X-X-0-X-X--X-X-0-00-X-00-X-0-X-X-0-X--X--------------------| x2
A|--0-00-3-00-5-0-6-5-0-3/5--3/5-0-00-3-00-5-0-6-5-0-3--3--------------------|
E|--0-00---00---0-----0----------0-00---00---0-----0-------------------------|
p.m.. ..   ..   .     .          . ..   ..   .     .

e|---------------------------------------------------------------------------|
B|---------------------------------------------------------------------------|
G|---------------------------------------------------------------------------|
D|--0-0-10-0-12-0-0-13-0-12-0-0-10-12-10-12-0-0-10-0-12-0-0-13-0-12-0-0-10-10| x2
A|--0-0-10-0-12-0-0-13-0-12-0-0-10-12-10-12-0-0-10-0-12-0-0-13-0-12-0-0-10-10| 
E|--0-0-10-0-12-0-0-13-0-12-0-0-10-12-10-12-0-0-10-0-12-0-0-13-0-12-0-0-10-10|
p.m.. . .  . .  . . .  . .  . . .  .  .  .  . . .  . .  . . .  . .  . . 

e|---------------------------------------------------------------------------|
B|---------------------------------------------------------------------------|
G|----------------------5/7--5/7----------------------5--5-------------------|
D|--5-5--3-3--6-6--4-4--X-X--X-X--5-5--3-3--6-6--4-4--X--X-------------------|
A|--5-5--3-3--6-6--4-4--3/5--3/5--5-5--3-3--6-6--4-4--3--3-------------------|
E|--5-5--3-3--6-6--4-4------------5-5--3-3--6-6--4-4-------------------------|
p.m.. .       . .                 . .       . .

e|-------------------------------------------------------------(5)-----------|
B|-----------------------------------------------------------(5)-------------|
G|----------------------5/7--5/7---------------------------(5)---------------|
D|--5-5--3-3--6-6--4-4--X-X--X-X--5-5--3-3--6-6--4-4-----(5)-----------------|
A|--5-5--3-3--6-6--4-4--3/5--3/5--5-5--3-3--6-6--4-4---(5)-------------------|
E|--5-5--3-3--6-6--4-4------------5-5--3-3--6-6--4-4-(5)---------------------|
p.m.. .       . .                 . .       . .

e|---------------------------------------------------------------------------|
B|---------------------------------------------------------------------------|
G|---------------------------------------------------------------------------|
D|--0--0-00---------0--0-0-3--0--0-00---------0--0-003-3---------------------| x4
A|--0--0-00-3h5p3p0-0--0-0-3--0--0-00-3h5p3p0-0--0-003-3---------------------|
E|--0--0-00---------0--0-0-3--0--0-00---------0--0-003-3---------------------|
p.m.     ..              .         ..              ... .

e|---------------------------------------------------------------------------|
B|---------------------------------------------------------------------------|
G|---------------------------------------------------------------------------|
D|--0--(7)-0--0-(7)--0--(7)-0--0-3--0--(7)-0--0-(7)--0--(7)-0--003-3---------| x2
A|--0--(5)-0--0-(5)--0--(5)-0--0-3--0--(5)-0--0-(5)--0--(5)-0--003-3---------|
E|--0------0--0------0------0--0-3--0------0--0------0------0--003-3---------|
p.m.          .                .              .                ... .

e|---------------------------------------------------------------------------|
B|---------------------------------------------------------------------------|
G|---------------------------------------------------------------------------|
D|--0~-0-0-0-0-0-0--5-5-5-5-5-5--3~-3-3-3-3-3-3--6-6-6-6h7p6-----------------|
A|--0~-0-0-0-0-0-0--5-5-5-5-5-5--3~-3-3-3-3-3-3--6-6-6-6h7p6-----------------|
E|--0~-0-0-0-0-0-0--5-5-5-5-5-5--3~-3-3-3-3-3-3--6-6-6-6h7p6-----------------|
p.m.   . . . . . .      .     .     . . . . . .      .

e|---------------------------------------------------------------------------|
B|---------------------------------------------------------------------------|
G|---------------------------------------------------------------------------|
D|--0~-0-0-0-0-0-0--5-5-5-5-5-5--3~-3-3-3-3-3-3--6---------------------------|
A|--0~-0-0-0-0-0-0--5-5-5-5-5-5--3~-3-3-3-3-3-3--6---------------------------|
E|--0~-0-0-0-0-0-0--5-5-5-5-5-5--3~-3-3-3-3-3-3--6---------------------------|
p.m.   . . . . . .      .     .     . . . . . .      

Now repeat everything. Then play this.

e|---------------------------------------------------------------------------|
B|---------------------------------------------------------------------------|
G|---------------------------------------------------------------------------|
D|--0-12-10-0-10-9-0-9-8-0-8-7-2-3-2-1-0-12-10-0-10-9-0-9-8-0-8-7-2-3-2-1----| x2
A|--0-12-10-0-10-9-0-9-8-0-8-7-2-3-2-1-0-12-10-0-10-9-0-9-8-0-8-7-2-3-2-1----|
E|--0-12-10-0-10-9-0-9-8-0-8-7-2-3-2-1-0-12-10-0-10-9-0-9-8-0-8-7-2-3-2-1----|
p.m.. .  .  . .  . . . . . . . . . . . . .  .  . .  . . . . . . . . . . .

e|---------------------------------------------------------------------------|
B|---------------------------------------------------------------------------|
G|-------5----7---8-7---5/7--5/7------5----7---8-7---5--5--------------------|
D|--0-00-X-00-X-0-X-X-0-X-X--X-X-0-00-X-00-X-0-X-X-0-X--X--------------------| x6
A|--0-00-3-00-5-0-6-5-0-3/5--3/5-0-00-3-00-5-0-6-5-0-3--3--------------------|
E|--0-00---00---0-----0----------0-00---00---0-----0-------------------------|
p.m.. ..   ..   .     .          . ..   ..   .     .

************************************

| PS  Pick Slide
| /   Slide Up
| \   Slide Down
| h   Hammer-On
| p   Pull-Off
| ()  Harmonic
| .   Palm Mute

************************************

Добавлено: 07.04.2012
Другие материалы по этой песне:
  • Аккорды и текст

Страница создана 07.04.2012
http://primanota.ru/element-eighty/painmaker-chords.htm
Привет, Гость.
Предлагаем пройти революционный курс по гитаре.
Подарок от PrimaNota.Ru, забирай!