PrimaNota.ru - самый крупный в мире бесплатный архив песенных текстов, аккордов, табулатур и нот


Elefante - Mentirosa - таба, видео

Регистрация Запомнить меня
Войти через:  Facebook Google Twitter Vk Yandex Mail.ru

Elefante - Mentirosa - таба, видео

Печатать
Просмотров: 135
ELEFANTE !!!!!!

TqMmMmM RUbí !!!!!!!! 


:::Acordes:::
       eBGDAE eBGDAE
C#m  : 45664x
E    : 001220
G#7  : 445464
A    : 02220x 556775
B    : 24442x

******************************************************
Intro [0:0] – Guitarra1 (Punteado) {G. Eléctrica}
            - Guitarra2 (Rasgado)  {G. Acústica)

G|---------------------|
D|---------------------|
A|-4--4-----4-4-4------|
E|------4h7-------4-7--| (x2)

/En esta parte entra la Guitarra2 junto con el Bajo y la Batería/
  <--------C#m--------->
G|---------------------|
D|---------------------|
A|-4--4-----4-4-4------|
E|------4h7-------4-7--| (x2)

G|-----------------------------------|
D|-------4--4h5--4-------------------|
A|-4--7-------------7--4------7--4---|
E|-------------------------7---------|

******************************************************
Verso (1ro y 2do) [0:14],[0:24] – Guitarra2 (Arpegio)
                                - Bajo
                                - Guitarra1 (Rasgado) {2da estrofa}

    C#m            B               A               G#7
e|--4-----4------|-2-----2-----4-|-0-----0-----4-|-4-----------4-|
B|--5------------|-4-------------|-2--2-----2----|-4-----4-------|
G|--6--6---------|-4--4-----4----|-2-------------|-5--5-----5----|
D|--6------------|-4-------------|-2-------------|-4-------------|
A|--4------------|-2-------------|-0-------------|-6-------------|
E|---------------|---------------|---------------|-4-------------|
///Guitarra2
Bajo
G|---------------|---------------|---------------|---------------|
D|---------------|---------------|---------------|---------------|
A|2/4------4-----|-2------2------|-0------0------|---------------|
E|-----4-4-------|----2-2--------|----0-0--------|--4--2-2-4-----|

[Verso1]
               C#m                 B
Que le vamos a hacer si la vida es así.
        A                         G#7
Le aposté todos a tus besos y así todo lo perdí.

[Verso2]
             C#m                  B
No me pidas perdón que ni tú te lo crees.
      A                        G#7
Esas lágrimas son falsas, como falso fue tu amor.

******************************************************
Pre-coro1 [0:34] – Guitarra1 (Punteado)
                 - Guitarra2 (Rasgado)

   B                  C#m
D|-----1h4-------1-4|-----2-6----------|
A|-2-2-----2-2-2----|-4-4-----4-4-4----|
E|------------------|------------------|

   A                  E
D|------------------|
A|-----7h9-------7--|
E|-5-5-----5-5-5----|

B                               C#m
  Pero no me digas nada que el tonto he sido yo
       A                           E
Si la luna no es de queso, ni las nubes de algodón.

******************************************************
Coro [0:44] - Guitarra1 (Requinta)
            - Guitarra2 (Rasgado)

      B         C#m
Mentirosa, traicionera
      A                       E
Y yo que daba por ti la vida entera.
      B        C#m
Mentirosa, embustera
      A                  G#7 (seguido 3 veces y para)
Basta ya de tanto ruido,
                   C#m
Este cuento se acabó.
                         (Fill1)
aah aah ah aah aah ah ah
C#m
aah aah ah aah aah ah ah

******************************************************
Fill1 [1:08] [3:21] – Guitarra2

                  C#m
e|-----------4-5-4h5p4-4---|
B|-----4-5-7-------------5-|
G|-5-6---------------------|

******************************************************
Verso3 [1:13] - Guitarra2 (Arpegio)
              - Bajo

/El Bajo es el mismo para todos los versos/

    C#m            B               A               G#7
e|---------------|--------2------|-------4-----0-|--------4----4-|
B|---------------|-----4---------|----2-----2----|---------------|
G|------4--6-----|---4-----------|---------------|-----5-----5---|
D|----6----------|---------------|---------------|---4-----------|
A|--4------------|-2-------------|-0-------------|---------------|
E|---------------|---------------|---------------|-4-------------|

           C#m               B
Para que decir más si todo terminó
      A                      G
Todo lo que sube, baja. Todo lo que viene, va

******************************************************
Verso4 [1:23] - Guitarra2 (Arpegio)
              - Bajo
              - Guitarra1 (Rasgado)

   C#m               B               A                 G#7
e|-4---------------|-2-------2---2-|-5---5---7-------|-4-------4------|
B|-5---5---5---5---|-4---4------4-4|-5-----5---5-5---|-4---4-------4--|
G|-6-6---6---6---6-|-4-4---4---4---|-6-6-----------6-|-5-5---5---5---4|
D|-6---------------|-4-------------|-7---------------|-4--------------|
A|-4---------------|-2-------------|-7---------------|-6--------------|
E|-----------------|---------------|-5---------------|-4--------------|

              C#m               B
No me pidas perdón que ni tú te lo crees
      A                       G#7
Vete por donde llegaste, y ojalá te vaya bien.

******************************************************
Pre-coro2 [1:34] – Guitarra1 (Punteado)
                 - Guitarra2 (Rasgado)

/Se toca igual que el Pre-coro1/

B                                   C#m
  Para que seguir con cuentos, con amores de ficción
       A                            E
Si tu boca no es de fresa, ni en tus ojos sale el sol.

******************************************************
Coro2 [1:43] - Guitarra1 (Requinta)
             - Guitarra2 (Rasgado)

/Se toca igual que el Coro1/

      B         C#m
Mentirosa, traicionera
      A                       E
Y yo que daba por ti la vida entera.
     B(Fill2)    C#m
Mentirosa, embustera
      A                  G#7 (solo una vez)
Basta ya de tanto ruido,
                   C#m
Este cuento se acabó.
                       (Fill3)
aah aah ah aah aah ah ah
C#m                    (Fill4)
aah aah ah aah aah ah ah

******************************************************
Fill2 [1:53] – Guitarra2

   B                  C#m
e|-------------------|---------------------|
B|-7-7-7-5-5-5-4-4---|-7/9-9-9-7-7-7-5-5---|
G|-------------------|---------------------|

******************************************************
Fill3 [2:06] – Guitarra2

   B                                       C#m
e|----------------------4---------------------|
B|-------------4--5--7-----7--5--7--5-4h5p4---|
G|-------4--6-------------------------------6-|
D|-4--6---------------------------------------|
A|--------------------------------------------|

******************************************************
Fill4 [2:11] – Guitarra2

   B                                   (Solo)
e|-----------------------------------------|
B|-----------------------------------------|
G|----------------------1------------------|
D|-------------1--2--4-----4--2h4--2h4p2---|
A|-------2--4----------------------------4-|
E|-2--4------------------------------------|

******************************************************
Solo [2:13] - Guitarra1 (Punteado)
            - Guitarra2 (Rasgado)

   C#m                 B                 A
e|-7/9-9-999-9-999999/7-7-7-7-7-7-7-7-744/5-5-555-5-5-5-5-|
B|-7/9-9-999-9-999999/7-7-7-7-7-7-7-7-744/5-5-555-5-5-5-5-|
G|--------------------------------------------------------|
   ^   ^ ^v^ ^ ^v^v^v   ^ ^ ^ ^ ^ v ^ ^v^   ^ ^v^ ^ ^ v ^

   E                   B               C#m
e|-4---5---4---5-4-2---------------------------------|
B|-5-5---5---5-------5-7~--7-7-7/5-5-5-5p4--4-2-2-2-2|
G|---------------------------------------------------|

   A                         E
e|-------------4---5---4---5-4-4-5-5-4--|
B|-2h4-4-4-4/5---5---5---5---5-5-5-5-5--|
G|---------------------------------------|

******************************************************
Coro3 y Final [2:32] - Guitarra1
                     - Guitarra2
                     - Bajo

    (Fill5)        C#m
Mentirosa, traicionera
      A                       E
Y yo que daba por ti la vida entera.
     B           C#m
Mentirosa, embustera
       A                          E
Yo contigo no regreso aunque me muera no, no
      B           C#m
Mentirosa, traicionera
      A                       E
Y yo que daba por ti la vida entera.
     B           C#m
Mentirosa, embustera
      A                  G#7 (3 veces)
Basta ya de tanto ruido,
                   C#m
Este cuento se acabó.
                      B
aah aah ah aah aah ah ah
C#m                   B   (Fill1)
aah aah ah aah aah ah ah
C#m                   B
aah aah ah aah aah ah ah
C#m                   B    C#m
aah aah ah aah aah ah ah

******************************************************
Fill5 [2:34] – Guitarra1

e|-x-7-7-|
B|-x-7-7-|
G|-x-7-7-|
D|--------|
   ^ v ^
Добавлено: 25.02.2012
Другие материалы по этой песне:

Страница создана 25.02.2012
http://primanota.ru/elefante/mentirosa-chords.htm
Привет, Гость.
Предлагаем пройти революционный курс по гитаре.
Подарок от PrimaNota.Ru, забирай!