PrimaNota.ru - самый крупный в мире бесплатный архив песенных текстов, аккордов, табулатур и нот


Elefante - Amores Prohibidos - таба, видео

Регистрация Запомнить меня
Войти через:  Facebook Google Twitter Vk Yandex Mail.ru

Elefante - Amores Prohibidos - таба, видео

Печатать
Просмотров: 102
Intro:

E|------------------------------------------------------------------------------|
A|------------------------------------------------------------------------------|
D|----2--------2--------2--------2--------2--------2--------0--------0----------|
g|----------0--------0--------0--------0--------0--------0--------2--------0----|
b|-------3--------3--------3--------3--------3--------3--------3--------3-------|
e|----3--------3--------2--------2--------0--------0--------2--------2----------|


                                                             D   C
E|-------------------------------------------------------------------------3----|
A|-----------------------------------------------------------------------3------|
D|----2--------2--------2--------2--------2--------2---------|---------2--------|
g|----------0--------0--------0--------0--------0------------|-------0----------|
b|-------3--------3--------3--------3--------3--------3------|-----1------------|
e|----3--------3--------2--------2--------0--------0-----0---V---0--------------|


                      D         G              C        Am
Corazones rotos en la avenidas,   mariposas de color,
                        D                     Em    (Scal 1)
fantasías en cualquier esquina, y yo sin su amor.

C                             D           G               C    Am
   Hay mujeres por las que se da la vida,   y un poquito mas,
                            D                G         D      C
yo la quise desde el primer día tanto, sin miedo, sin mas.

              D                  Bm
Amores prohibidos, que vienen y van,
                  C                Am
que nunca se han ido, que no volverán.

             D                   Bm
Amores que matan, que duelen de mas,
             C               Am  D            Em    (Scal 1)
amor de mentira, amor de verdad     acércate mas.

C                            D     G                 C     Am
   Hay miradas que te dicen tanto,   que te hacen soñar,
                          D                   Em                    D
madrugadas que jamás terminan, que nunca se irán, no..u no..ye..e

        Am             G            D      C
Alguna vez te encontraré, me encontrarás.

              D                  Bm
Amores prohibidos, que vienen y van,
                  C                Am
que nunca se han ido, que no volverán.

             D                   Bm
Amores que matan, que duelen de mas,
             C               Am  D            Am
amor de mentira, amor de verdad     acércate mas.


                     C              G
E|-----------------------------------------------------|
A|-----------------------------------------------------|
D|-----------------------------------------------------|
g|-----------------------------------------------------|
b|--10-12---------------------------------------12-----|
e|--------8-12-12-12-10-8-12-8-12-12-12-10-8-12----10--|

               Bm                         C                        D   A# B F#  E
E|----------------------------------------------------------------------------------|
A|----------------------------------------------------------------------------------|
D|----------------------------------------------------------------------------------|
g|----------------------------------------------------------------------------------|
b|--12------------------------------------------------------------------------------|
e|-----8-10-12-14-12-10-14-14-14-14-14-14-12-10-8-12-12-12-12-10-8-10--6--7--9--11--|


              F#                 D#m
Amores prohibidos, que vienen y van,
                  E                C#m
que nunca se han ido, que no volverán.

             F#                  D#m
Amores que matan, que duelen de mas,
             E               C#m  F#
amor de mentira, amor de verdad      acércate
   G#m
  mas,                   acércate más...          acércate más.
E|---------------------------------------------------------------------------------|
A|---------------------------------------------------------------------------------|
D|--6--------6--------6--------6--------6--------6--------6--------6---------6|----|
g|--------4--------4--------4--------4--------4--------4--------4------------4|----|
b|-----4--------4--------4--------4--------4--------4--------4--------4------4|----|
e|--7--------7--------6--------6--------4--------4--------6--------6-----6---7V----|


EN EL ACOMPAÑAMIENTO DEL REQUITNO, CHEQUEN OTRAS PISADAS, PORQUE LE HACE FALTA UN PLUS 
PARA QUE SUENE MEJOR
Добавлено: 25.07.2013
Другие материалы по этой песне:
  • Аккорды и текст

Страница создана 25.07.2013
http://primanota.ru/elefante/amores-prohibidos-chords.htm
Привет, Гость.
Предлагаем пройти революционный курс по гитаре.
Подарок от PrimaNota.Ru, забирай!