PrimaNota.ru - самый крупный в мире бесплатный архив песенных текстов, аккордов, табулатур и нот


Elefante - La Condena - таба, бас-таба, видео

Регистрация Запомнить меня
Войти через:  Facebook Google Twitter Vk Yandex Mail.ru

Elefante - La Condena - таба, бас-таба, видео

Печатать
Просмотров: 178
Уроки эстрадного вокала в Санкт-Петербурге
Esta es una Version Mejorada de la cancion... Gracias al guitarrista de 
Stolen...ke la mejoro un poko! ;)


No tuve palabras cuando te perdi
    F            C               G                    
e|--1------------0---------------1-------------------|
B|--1------------1---------------0-------------------|
G|--2------------0---------------0-------------------|
D|--3------------2---------------0-------------------|
A|--3------------3---------------2-------------------|
E|--1------------0---------------3-------------------|
                        

la Luna discreta guardaba silencio
    F            C               G                    
e|--1------------0---------------1-------------------|
B|--1------------1---------------0-------------------|
G|--2------------0---------------0-------------------|
D|--3------------2---------------0-------------------|
A|--3------------3---------------2-------------------|
E|--1------------0---------------3-------------------|
                        

abri las ventanas, no estabas ahi
    F            C               G                    
e|--1------------0---------------1-------------------|
B|--1------------1---------------0-------------------|
G|--2------------0---------------0-------------------|
D|--3------------2---------------0-------------------|
A|--3------------3---------------2-------------------|
E|--1------------0---------------3-------------------|
                        

demasiado tarde mi arrepentimiento
    F            C               G                    
e|--1------------0---------------1-------------------|
B|--1------------1---------------0-------------------|
G|--2------------0---------------0-------------------|
D|--3------------2---------------0-------------------|
A|--3------------3---------------2-------------------|
E|--1------------0---------------3-------------------|
                        

        F
e|------------------------|  
B|------------------------|   
G|------------------------|  
D|------------------------|  
A|--3-3-3-2-2-2-----------|  
E|---------------3-3-1----| 
   <     p     m      >


       F       C               G
No se donde estas pero sigues aqui,

       F         C                    G
en medio de todo, durmiendo en mis sueños

       F       C               G
y se que el destino se burla de mi

       F       C               G
que puedo decirle si me lo merezco.


    F
Esta absurda soledad
e|------------------|------------------|   
B|------------------|------------------|   
G|---------4--------|---------4--------|
D|-----3------3---3-|-----3-----3---3--|
A|---3---3------3---|---3---3-----3----|  
E|-1----------------|-1----------------|  
  <       p                m           >

    C              G
No te deja de pensar.
e|------------------|------------------|   
B|---------5--------|------------------|   
G|-----5-----5---5--|------------------|
D|---5---5-----5----|------------------|
A|-3----------------|------------------|  
E|------------------|------------------|  
  <    p    m    >  


     F         C                      G    Riff 1
Donde esta mi suerte, a donde van tus pasos,

     F         C                      G    Riff 2  
donde estan los besos que nunca te di

     F         C                      G    Riff 1
donde esta el olvido, donde esta el fracaso, 

 Riff 3
bendita la noche en que te conoci. 






Riff 1                  Riff 2 

e|--------------------|  e|--------------------------| 
B|--------------------|  B|--------------------------| 
G|--------------------|  G|-------0--------0---------|
D|--------------------|  D|-0-0p2----0-0p2-----------|
A|--3-2---------------|  A|--------------------------|
E|-------3-1----------|  E|--------------------------|

Riff 3
e|-----------|     
B|-----------| 
G|-----------|
D|-----------|
A|-0---------|
E|----3------|


En este verso empieza el bajo solo, entra la guitarra
en G, y despues los F y C van con un solo rasgueo... 

                                  G               
Mis cuatro paredes preguntan por ti

  F            C                      G
No se que decirles si lloro en silencio

  F             C             G
Y las madrugadas me saben a ti

   F             C                    G
Que amarga condena la que estoy viviendo.


Esta absurda....

Donde esta mi suerte, donde estan mis pasos....


Solo

e|---------|---------|------|---------|------------|------------|------------------|
B|-12/13-13|-12/13-13|-12/13|-12/13-13|-12/13-13-13|-13-13-12---|-13-12----13-12---|
G|-12----12|-12----12|-12---|-12----12|-12----12-12|----------12|-------12-------12|
D|---------|---------|------|---------|------------|------------|------------------|
A|---------|---------|------|---------|------------|------------|------------------|
E|---------|---------|------|---------|------------|------------|------------------|


e|------------------|---------|---------|------|---------|------------|------------|
B|-13-12----13-12-12|-12/13-13|-12/13-13|-12/13|-12/13-13|-12/13-13-13|-13-13-12---|
G|-------12-------12|-12----12|-12----12|-12---|-12----12|-12----12-12|----------12|
D|------------------|---------|---------|------|---------|------------|------------|
A|------------------|---------|---------|------|---------|------------|------------|
E|------------------|---------|---------|------|---------|------------|------------|

e|------------------|------------------|-12-12-12----------|-12-12-12----------|
B|-13-12----13-12---|-13-12----13-12-12|----------13-13-13-|----------13-13-13-|
G|-------12-------12|-------12-------12|-------------------|-------------------|
D|------------------|------------------|-------------------|-------------------|
A|------------------|------------------|-------------------|-------------------|
E|------------------|------------------|-------------------|-------------------|

e|12-12-12----------------------------------------------------|-----------------|
B|----------15-15-15-13-13-13-12--12-13-12-------12-13-12-----|--12-13-12-------|
G|-----------------------------------------12-10----------12-9|----------12-12--|
D|------------------------------------------------------------|-----------------|
A|------------------------------------------------------------|-----------------|
E|------------------------------------------------------------|-----------------|

e|---------|---------|---------|
B|-12-13---|-12-13---|-12-13---|
G|-------12|-------12|-------12|
D|---------|---------|---------|
A|---------|---------|---------|
E|---------|---------|---------|


Esta absurda soledad......

Donde esta mi suerte......


...Bendita la noche en que te conoci... 

Solo con voz...

        C
Bendita la noche


Cualquier aclaracion o duda envienla a mi mail: Ventroshka@stolen.pro.mx (no es una broma)
Un Saludo a toda la Banda de Stolen! Mike!Gato!Ventroshka!...i loz demas ke faltan x confirmar!
i ahora ke?   a darlee!!! Rock! 4 life!
Добавлено: 14.05.2012
Другие материалы по этой песне:

Страница создана 09.05.2012
http://primanota.ru/elefante/la-condena-chords.htm
Привет, Гость.
Предлагаем пройти революционный курс по гитаре.
Подарок от PrimaNota.Ru, забирай!