PrimaNota.ru - самый крупный в мире бесплатный архив песенных текстов, аккордов, табулатур и нот


Elefante - El Abandonado - таба, видео

Регистрация Запомнить меня
Войти через:  Facebook Google Twitter Vk Yandex Mail.ru

Elefante - El Abandonado - таба, видео

Печатать
Просмотров: 115
Alan  

Rubí te quiero mushio mushio 


*Intro:


-Riff: X6

1. ---------------------|
2. ---------------------|
3. ---------------------|
4. ---------------------|
5. ---1---3---1---3---1-|
6. -3---3---3---3---3---|


1. ------15-----------------------------------------------|
2. -8/15----15p13-11--------------------------------------|
3. ------------------12\10------10----10/12---------------|
4. -------------------------/10----10--------/12p10-8-----|
5. ---------------------------------------------------10\-|
6. -------------------------------------------------------|
 

*Verso:

 
                           Cm
Anoche pude ver cuando te fuiste
1. ----------------------------------|
2. ----------------------------4-----|
3. ------------------------------5---|
4. --------------------------------5-|
5. ----------------------------------|
6. ----------------------------------|
   F                       Gm 
solito me quedé y no dije nada,
1. --------------------------------|
2. --------------------------3-----|
3. ----------------------------3---|
4. ------------------------------5-|
5. --------------------------------|
6. --------------------------------|
                               Cm
tal vez esta canción te suene triste
1. -------------------------------------|
2. -------------------------------4-----|
3. ---------------------------------5---|
4. -----------------------------------5-|
5. -------------------------------------|
6. -------------------------------------|
  F                          Gm
pero me está llevando la chingada.
1. ---------------------------------|
2. ---------------------------3-----|
3. -----------------------------5---|
4. -------------------------------5-|
5. ---------------------------------|
6. ---------------------------------|
 
 
Y lo que me digas,
1. -------------------|
2. -------------------|
3. --------------5/7~-|
4. -------------------|
5. -------------------|
6. -------------------|
     Cm 
de memoria me los sé
        F                       Gm
tus mentiras no me servirán de nada,
1. ---------------------------------------------|
2. ---------------------------------11p10-8-----|
3. -----------------------------------------7---|
4. -------------------------------------------8-|
5. ---------------------------------------------|
6. ---------------------------------------------|
 
tú te lo perdiste,
1. ------------------|
2. ------------------|
3. -------------5/7~-|
4. ------------------|
5. ------------------|
6. ------------------|
  Cm
ojalá te vaya bien
1. ------------------------|
2. ------------------------|
3. ------------------8/10~-|
4. ------------------------|
5. ------------------------|
6. ------------------------|
       F
yo me voy por donde vine,
       D#
sé que no me perderé, no no.
 
 
*Coro:
 
 
Gm         Cm
Abandonao, un exiliado,
1. ------------------|
2. ---3---3----4---4-|
3. -3----3---5----5--|Palm
4. -5---5----5---5---|Mute
5. -5--------3-------|
6. ------------------|
       F                            Gm
de tu boca, de tus manos, de tu corazón,
1. ----------------------------------------------|
2. ---1---1--------------------------------------|
3. -2----2---------------------------3h5-3-------|
4. -3---3----------------------------------5p3---|
5. -3------------------------------------------5-|
6. –--P.M.---------------------------------------|
                Cm
sin rumbo fijo, voy de la mano,
1. ------------------|
2. ---3---3----4---4-|
3. -3----3---5----5--|Palm
4. -5---5----5---5---|Mute
5. -5--------3-------|
6. ------------------|
         F
de mis sueños vagabundos
1. ---------|
2. ---1---1-|
3. -2----2--|Palm
4. -3---3---|Mute
5. -3-------|
6. –--------|
       A#         D#              D
y me importa poco que me diga el mundo...
         Gm
El Abandonao
1. -----------------|
2. -----------------|
3. -----------------|
4. ------------3/5~-|
5. ----------3------|
6. -----------------|
 
 
*Verso:
 
 
     Gm                         Cm
El tiempo es el doctor de los dolidos,
1. ---------------------------------3-1/3-3-|
2. ---------------------------------3-1/3-3-|
3. ---------------------------------3-2/3-3-|
4. -----------------------------------------|
5. -----------------------------------------|
6. -----------------------------------------|
  F                              Gm
para sanar las penas que te embriagan;
1. ---------------------------------------------|
2. ------------------------------------6--6-6-6-|
3. ---------------------------------/7---7-7-7--|
4. ---------------------------------------------|
5. ---------------------------------------------|
6. ---------------------------------------------|
                              Cm
yo siempre me las curo con tequila,
1. ------------------------------------------|
2. ------------------------------------------|
3. ----------------------------------3-5/7-5-|
4. ------------------------------3h5---------|
5. ------------------------------------------|
6. ------------------------------------------|
  F                          Gm
oyendo a José Alfredo y al Sabina.
1. -------------------------------------------------|
2. ---------------------------4-3-------------------|
3. -------------------------------5-3---3-----------|
4. -----------------------------------5---5-3---3-5-|
5. -------------------------------------------3-----|
6. -------------------------------------------------|

 
Y no pasa nada,
1. ----------------|
2. ----------------|
3. -----------5/7~-|
4. ----------------|
5. ----------------|
6. ----------------|
       Cm 
sé que no me moriré;
1. ---------------------|
2. ---------------------|
3. ---------------8/10~-|
4. ---------------------|
5. ---------------------|
6. ---------------------|
      F                          Gm
como dice la canción “así es la vida”
1. ----------------------------------3-5-6-|
2. ----------------------------------------|
3. ---------------------------------3-5-7--|
4. ----------------------------------------|
5. ----------------------------------------|
6. ----------------------------------------|
 
mírame a los ojos,
1. ------------------|
2. ------------------|
3. --------------/7~-|
4. ------------------|
5. ------------------|
6. ------------------|
        Cm
aunque sea la última vez
1.--------------------------|
2. -------------------------|
3. --------------------/10~-|
4. -------------------------|
5. -------------------------|
6. -------------------------|
      F
sólo vine a despedirme,
       D# 
no te vine a detener, no no.
 
 
*Coro:
 
 
Gm         Cm
Abandonao, un exiliado,
1. ------------------|
2. ---3---3----4---4-|
3. -3----3---5----5--|Palm
4. -5---5----5---5---|Mute
5. -5--------3-------|
6. ------------------|
       F                            Gm
de tu boca, de tus manos, de tu corazón,
1. ----------------------------------------------|
2. ---1---1--------------------------------------|
3. -2----2---------------------------3h5-5-5p3---|
4. -3---3--------------------------------------5-|
5. -3--------------------------------------------|
6. –--P.M.---------------------------------------|
                Cm
sin rumbo fijo, voy de la mano,
1. ------------------|
2. ---3---3----4---4-|
3. -3----3---5----5--|Palm
4. -5---5----5---5---|Mute
5. -5--------3-------|
6. ------------------|
         F
de mis sueños vagabundos
1. ---------|
2. ---1---1-|
3. -2----2--|Palm
4. -3---3---|Mute
5. -3-------|
6. –--------|
       A#         D#              D
y me importa poco que me diga el mundo...
         Gm
El Abandonao
 
 
Gm                     Cm  
Así estoy yo sin ti, fallaste corazón,
1. -------------------------------------------|
2. -------------------------------------8-8\6-|
3. ---------------------------------5/7-------|
4. -------------------------------------------|
5. -------------------------------------------|
6. -------------------------------------------|
 F                      Gm
ya lo pasado pasado, te doy una canción,
1. -------------------------------------------------|
2. -------------------------------------------------|
3. -----------------------------------7p5-----------|
4. ---------------------------------------8-7b(8)r7-|
5. -------------------------------------------------|
6. -------------------------------------------------|
                               Cm
de qué manera te olvido? esta tarde vi llover,
1. ------------------------------------------------|
2. ------------------------------------------------|
3. -------------------------------------------5/7~-|
4. -----------------5/8~---------------------------|
5. ------------------------------------------------|
6. ------------------------------------------------|
 F                       D#  
bésame, bésame mucho, tóquenme la que se fue.
1. ---------------------------------------------------------|
2. ------------------------------------------11p10-8--------|
3. --------------------------------------------------7-7----|
4. ------------------------------------------------------8\-|
5. ---------------------------------------------------------|
6. ---------------------------------------------------------|
 
 
*Solo:
 

1. -/11r(12)(12)(12)(12)p10-10-8-10b-----------------------------------------------|
2. ----------------------------------/10-10-10p8-8-8-8-----------------------------|
3. ---------------------------------------------------9-9-9p7-7-7------------------|
4. --------------------------------------------------------------10p9-7-----7-10-7-|
5. ---------------------------------------------------------------------7-10-------|
6. --------------------------------------------------------------------------------|
 
1. ----------------------------------/12-12121212--------------------------------|
2. ----10-10---10---10---/13-13-8-10--------------13131313\12-121212\10-101010\8-|
3. -/9-------9----9----9---------------------------------------------------------|
4. ------------------------------------------------------------------------------|
5. ------------------------------------------------------------------------------|
6. ------------------------------------------------------------------------------|
 
1. -----------------|
2. -8-8-8-----------|
3. -------9-7-------|
4. -----------10-7~-|
5. -----------------|
6. -----------------|


*Coro: 1 Tone-Up
 
 
Am         Dm
Abandonao, un exiliado,
1. ------------------|
2. ---5---5----6---6-|
3. -5----5---7----7--|Palm
4. -7---7----7---7---|Mute
5. -7--------5-------|
6. ------------------|
       G                            Am
de tu boca, de tus manos, de tu corazón,
1. ---------------------------------------3-------------|
2. ---3---3---------------------------3h5---5-3---------|
3. -4----4--------------------------------------5-3-5---|
4. -5---5---------------------------------------------5-|
5. -5---------------------------------------------------|
6. –--P.M.----------------------------------------------|
                Dm
sin rumbo fijo, voy de la mano,
1. ------------------|
2. ---5---5----6---6-|
3. -5----5---7----7--|Palm
4. -7---7----7---7---|Mute
5. -7--------5-------|
6. ------------------|
         G
de mis sueños vagabundos
1. ---------|
2. ---3---3-|
3. -4----4--|Palm
4. -5---5---|Mute
5. -5-------|
6. –--------|
        C         F#              E
y me importa poco que me diga el mundo...
         Am
El Abandonao.
 

*Outro:
 
 
1. ---------------|
2. -10p8----------|
3. ------7-7\5----|
4. ------------/7-|
5. ---------------|
6. ---------------|
Добавлено: 18.06.2012
Другие материалы по этой песне:

Страница создана 08.05.2012
http://primanota.ru/elefante/el-abandonado-chords.htm
Привет, Гость.
Предлагаем пройти революционный курс по гитаре.
Подарок от PrimaNota.Ru, забирай!