PrimaNota.ru - самый крупный в мире бесплатный архив песенных текстов, аккордов, табулатур и нот


Eels - Mother Mary - текст песни, бас-таба, видео

Регистрация Запомнить меня
Войти через:  Facebook Google Twitter Vk Yandex Mail.ru

Eels - Mother Mary - текст песни, бас-таба, видео

Печатать
Просмотров: 137
----------------------------------------------------------------------------
			     Mother Mary - Eels
----------------------------------------------------------------------------
Tabbed by:Anton Petersson	
Email:antonpetersson1@hotmail.com

Tuning:EADG

Okay i've posted this tab as a bass tab beacause it's a bass and an electric
piano that plays it in the song. But you may play it on a guitar (standard
tuning) as well 

Intro:

G:------------------------------------------------------------------------|
D:-----5-5-----5-5-----5-5-----5-5--------0-------------------------------|
A:------------------------------------1-3---3-1---------------------------|
E:-3-3-----3-3-----3-3-----3-3------3-----------3-------------------------|


G:------------------------------------------------------------------------|
D:-----5-5-----5-5--------0-------5-3-0-----------0-------------0---------|
A:--------------------1-3---3-1---------3-1---1-3---3-1-----1-3---3-1-----|
E:-3-3-----3-3------3-----------3-----------3-----------3-3-----------3---|


People talking sound like dogs

G:---------------|
D:-------0-------|
A:---1-3---3-1---|
E:-3-----------3-|
Barking through the trees

G:---------------|
D:-------0-------|
A:---1-3---3-1---|
E:-3-----------3-|
Making no sense at all

G:---------------|
D:-------0-------|
A:---1-3---3-1---|
E:-3-----------3-|
Meaning nothing to me

G:----------------------------|
D:-------0--------------------|
A:---1-3---3-1----------------|
E:-3-----------3-3-5-5-6-6-7-7|


Mother mary

G:---------|
D:-5-5-5-5-|
A:---------|
E:---------|

Quite contrary

G:---------|
D:---------|
A:-5-5-5-5-|
E:---------|
I did not mean to let you go

G:--------------|
D:-2-2-2-2-4-4-4|
A:--------------|
E:--------------|
  So quick

G:--------------------------------------|
D:-4---------0------------------0-------|
A:-------1-3---3-1----------1-3---3-1---|
E:-----3-----------3------3-----------3-|

Verse 2:

People talking crack me up
They don't have a little clue
What it's like to be me
What it's like to lose you

Refrain:

Mother mary
I grow weary
I did not mean to let you go
So quick

G:-----------|
D:-5-5-5-5-5-| Listen to the song and you will hear when to change.
A:-----------|
E:-3-3-3-3-3-|

G:---------------------------------|
D:-5-5-5-5---------2-2-2-2-4-4-4-4-|
A:---------5-5-5-5-----------------|
E:---------------------------------|

G:-----------------------------------------------------|
D:-------0------------------0------------------0-------|
A:---1-3---3-1----------1-3---3-1----------1-3---3-1---|
E:-3-----------3------3-----------3------3-----------3-|

Verse 3:

People talking sound like dogs
Barking up the wrong tree
Take a good man down
And set the evil free

Refrain:

Mother mary
Quite contrary
I did not mean to let you go
So quick

outro:

G:-----------|
D:-5-5-5-5-5-| Listen to the song and you will hear when to change.
A:-----------|
E:-3-3-3-3-3-|

G:---------------------------------------------------------|
D:-5-5-5-5---------2-2-2-2-4-4-4-4-5-5-5-5-5-5-5-5-5-5-5-5-|
A:---------5-5-5-5-----------------------------------------|
E:---------------------------------3-3-3-3-3-3-3-3-3-3-3-3-|

Please send me comments
Добавлено: 12.07.2012
Другие материалы по этой песне:

Страница создана 11.03.2012
http://primanota.ru/eels/mother-mary-chords.htm
Привет, Гость.
Предлагаем пройти революционный курс по гитаре.
Подарок от PrimaNota.Ru, забирай!