PrimaNota.ru - самый крупный в мире бесплатный архив песенных текстов, аккордов, табулатур и нот


Eels - Not Ready Yet - аккорды и текст, таба, видео

Регистрация Запомнить меня
Войти через:  Facebook Google Twitter Vk Yandex Mail.ru

Eels - Not Ready Yet - аккорды и текст, таба, видео

Печатать
Просмотров: 534
Not Ready Yet
Eels
-------------------------------------------------------------------------------
                              Eels - Not Ready Yet
-------------------------------------------------------------------------------
Album : Beautiful Freak (1996)
Tempo : 80
E-mail: gwendal.mollo@orange.fr
Tabbed by: newg

Capo 7

Intro :
   Am    Em             C                Am    Em             C
e|-------------------|-----------------|-------------------|-----------0--|
B|-1--1--------------|--1--1--1-0------|-1--1--------------|--1----1------|
G|-2--2--0-----------|--0--0------2-0--|-2--2--0-----------|--0------0----|
D|-2--2--2--------0--|--2--2-----------|-2--2--2--------0--|--2-----------|
A|-0--0--2--2--0h2---|--3--3-----------|-0--0--2--2--0h2---|--3-----------|
E|-------0--0--------|-----------------|-------0--0--------|--------------|

Am Em C (With disto) x2 

  
          Am       Em   C
There's a world outside
      Am          Em         C
And i know 'cause i've heard talk
      Am       Em     C
In my sweetest dream
        Am     Em    C
I would go out for a walk

Chorus : (Strum once)
     Am               Em         C
But i don't think i'm ready yet
Am              Em         C
I'm not feeling up to it now
Am            Em          C
Just not that steady yet
      Am                Em         C
And i don't need you telling me how
 
             Am        Em   C
There's some happiness
       Am         Em      C
And my stone face cracks again
      Am       Em          C
Maybe sometime sooner or later

[Chorus]

Intro
Am Em C (With disto) x4

        Am       Em    C
So if i leave my room
          Am         Em      C
Don't you tell me to lighten up
      Am       Em          C
Maybe sometime sooner or later

[Chorus]

  Am             Em            C
i don't need you telling me how    x6

Outro :

Am Am7 - Em Em7 - C C* - C C*


Am7 : x02213
Em7 : 022003
C*  : x32013 
Добавлено: 02.04.2014
Другие материалы по этой песне:

Страница создана 12.04.2012
http://primanota.ru/eels/not-ready-yet-chords.htm
Привет, Гость.
Предлагаем пройти революционный курс по гитаре.
Подарок от PrimaNota.Ru, забирай!