PrimaNota.ru - самый крупный в мире бесплатный архив песенных текстов, аккордов, табулатур и нот


Eels - Fresh Blood - аккорды и текст, таба, видео

Регистрация Запомнить меня
Войти через:  Facebook Google Twitter Vk Yandex Mail.ru

Eels - Fresh Blood - аккорды и текст, таба, видео

Печатать
Просмотров: 465
Уроки эстрадного вокала в Санкт-Петербурге
Авторы: Mark Oliver Everett, Koool G Murder

Fresh Blood
Eels
-------------------------------------------------------------------------------
                              Eels - Fresh Blood
-------------------------------------------------------------------------------
Album : Hombre Lobo (2009)
Tempo : 91
E-mail: gwendal.mollo@orange.fr
Tabbed by: newg

Tunning : Dropped D

Riff :
e|---------------------------------|-----------------------------------------|
B|---------------------------------|-----------------------------------------|
G|---------------------------------|-----------------------------------------|
D|---------------------------------|-10-10-10-10-10-10-10-10-9-9-9-9-9-9-9-9-|
A|-5-5-5-5-5-5-5-5-8-8-8-8-8-8-8-8-|-----------------------------------------|
E|---------------------------------|-----------------------------------------|

e|---------------------------------|---------------------------------|
B|---------------------------------|---------------------------------|
G|---------------------------------|---------------------------------|
D|---------------------------------|-7-7-7-7-7-7-7-7-5-5-5-5-5-5-5-5-|
A|-5-5-5-5-5-5-5-5-8-8-8-8-8-8-8-8-|---------------------------------|
E|---------------------------------|---------------------------------|

chords :
D5  : 000xxx
F5  : 333xxx
C5  : x355xx
B5  : x244xx
A5  : 777xxx
G5  : 555xxx

D5 F5 C5 B5 
D5 F5 A5 G5    x2

D5    F5          C5    B5   D5       F5          A5       G5
  Sun down on the sorry day,   by nightlights the children pray
D5              F5              C5        B5   D5           F5         A5        G5
  I know you're prob'ly gettin' ready for bed,    beautiful woman, get out of my head
D5  (let ring)
I'm so tired of the same old crud
D5  (let ring)
Sweet baby, I need fresh blood

[Riff] x2
Whoo!
Howl

D5         F5            C5     B5   D5         F5        A5         G5
  The moon shines in the autumn sky,    Growin' cold, the leaves all die
D5          F5             C5   B5   D5         F5         A5           G5
  I'm more alone than I've ever been,   Help me out of the shape I'm in
D5  (let ring)
After the fires, before the flood
D5  (let ring)
My sweet baby, I need fresh blood

[Riff] x2
Whoo!
Howl

D5 F5 C5 B5 
D5 F5 A5 G5    

D5         F5          C5      B5    D5         F5         A5            G5
  Whatever trepidation you may feel,    In your heart, you know it's not real
D5     F5        C5    B5  D5           F5     A5   G5
  In a moment of clarity,     Summon an act of charity
D5  (let ring)
You gotta pull me out of this mud
D5  (let ring)
Sweet baby, I need fresh blood

[Riff] x2
Whoo!
Howl

[Riff] x2
Whoo!
Howl

D5 F5 C5 B5 
D5 F5 A5 G5  Repeat
Добавлено: 26.05.2017
Другие материалы по этой песне:

Страница создана 28.02.2012
http://primanota.ru/eels/fresh-blood-chords.htm
Привет, Гость.
Предлагаем пройти революционный курс по гитаре.
Подарок от PrimaNota.Ru, забирай!