PrimaNota.ru - самый крупный в мире бесплатный архив песенных текстов, аккордов, табулатур и нот


Edguy - Wake Up Dreaming Black - текст песни, таба, видео

Регистрация Запомнить меня
Войти через:  Facebook Google Twitter Vk Yandex Mail.ru

Edguy - Wake Up Dreaming Black - текст песни, таба, видео

Печатать
Просмотров: 102
-------------------------------------------------------------------------------
                             Wake Up Dreaming Black - Edguy
-------------------------------------------------------------------------------

My first tab, hope you like it.
Tabbed by: MishkaTrishka

Tuning: Standard EADGBe

Intro

e|--/10--8--10b11--10------------/10--8--10b11--10---------------------------|
B|---------------------------------------------------------------------------|
G|---------------------------------------------------------------------------|
D|---------------------------------------------------------------------------|
A|---------------------------------------------------------------------------|
E|---------------------------------------------------------------------------|

e|--/10--8--10b11--10--------------10--8-------------------------------------|
B|----------------------------------------11--10--8--------------------------|
G|---------------------------------------------------10----------------------|
D|---------------------------------------------------------------------------|
A|---------------------------------------------------------------------------|
E|---------------------------------------------------------------------------|

e|--/10--8--10b11--10----------8-------/10--8--10b11--10---------------------|
B|--------------------------11-----------------------------------------------|
G|-----------------------10--------------------------------------------------|
D|---------------------------------------------------------------------------|
A|---------------------------------------------------------------------------|
E|---------------------------------------------------------------------------|

e|--/10--8--10b11--10-----------------10--8----------------------------------|
B|-------------------------------------------11--10--8-----------------------|
G|------------------------------------------------------10-------------------|
D|---------------------------------------------------------------------------|
A|---------------------------------------------------------------------------|
E|---------------------------------------------------------------------------|

Verse

e|---------------------------------------------------------------------------|
B|---------------------------------------------------------------------------|
G|---------------------------------------------------------------------------|
D|--7-----7------------------------------------------------------------------|
A|--5-----5------------------------------------------------------------------|
E|---------------------------------------------------------------------------|

e|---------------------------------------------------------------------------|
B|---------------------------------------------------------------------------|
G|---------------------------------------------------------------------------|
D|--7-----7-----7-------7----5----7----5------7-----7-----7----7----5----7~--|
A|--5-[5]-5-[5]-5-------5----3----5----3------5-[5]-5-[5]-5----5----3----5~--|
E|---------------------------------------------------------------------------|

Pre-Chorus

e|---------------------------------------------------------------------------|
B|--6----6-------------------------------------------------------------------|
G|--7----7-------------------------------------------------------------------|
D|--7----7-------------------------------------------------------------------|
A|--5----5-------------------------------------------------------------------|
E|---------------------------------------------------------------------------|



************************************

| /   slide up
| \   slide down
| h   hammer-on
| p   pull-off
| ~   vibrato
| +   harmonic
| x   Mute note
|[5]  Palm Mute
| b   Bend
| pb  Pre-bend
| br  Bend release
| pbr Pre-bend release
| brb Bend release bend

************************************
Добавлено: 23.06.2013
Другие материалы по этой песне:

Страница создана 19.04.2012
http://primanota.ru/edguy/wake-up-dreaming-black-chords.htm
Привет, Гость.
Предлагаем пройти революционный курс по гитаре.
Подарок от PrimaNota.Ru, забирай!