PrimaNota.ru - самый крупный в мире бесплатный архив песенных текстов, аккордов, табулатур и нот


Edguy - King Of Fools - текст песни, таба, видео

Регистрация Запомнить меня
Войти через:  Facebook Google Twitter Vk Yandex Mail.ru

Edguy - King Of Fools - текст песни, таба, видео

Печатать
Просмотров: 314
Standard Tuning

Intro (played by Keyboard)
e----------------------------------------------------------------|
B----------------------------------------------------------------|
G---------4------------------------------------------------------|
D--------------5-4~-----------5-4~-------------5-4~---------5-4~-|
A----2-----------------2----------------2-------------2----------|
E----------------------------------------------------------------|
                                                                 |
e----------------------------------------------------------------|
B----------------------------------------------------------------|
G----------------2-----------------------------------------------|
D------5-4-----------3-2~------3-2~-------3-2~-----------3-2-----|
A----2------0--------------0----------0--------------0-----------|
E----------------------------------------------------------------|

Riff 1
e----------------------------------------------------------------|
B----------------------------------------------------------------|
G----44-44~---444~---444~--444~-------444------------------------|
D----44-44~---444~---444~--444~-------444------------------------|
A----22-22~---222~---222~--222~-------222------------------------|
E----------------------------------------------------------------|
                                                                 |
e----------------------------------------------------------------|
B----------------------------------------------------------------|
G----------------------------------------------------------------|
D----44-44~----444~----444~----4--4--4-----4~--------------------|
A----44-44~----444~----444~----4--4--4-----4~--------------------|
E----22-22~----222~----222~----2--2--2-----2~--------------------|

Verse
e----------------------------------------------17^(TREMOLO)------|
B----------------------------------------------------------------|
G----------------------------------------------------------------|
D------------------------1/3\1--1/3\1--1/3-4-3-------------------|
A------------------------1/3\1--1/3\1--1/3-4-3-------------------|
E----------------------------------------------------------------|

Prechorus
e----------------------------------------------------------------|
B----------------------------------------------------------------|
G------4~-----4~-----4~----4~----44------------------------------|
D------4~-----4~-----4~----4~----44------4~-4-4-4-4-4-4-4\-------|
A-----2~-----2~-----2~----2~-----22------4~-4-4-4-4-4-4-4\-------|
E---------------------------------------2~--2-2-2-2-2-2-2\-------|
                                            .   .   .
chorus
e----------------------------------------------------------------|
B----------------------------------------------------------------|
G-4---4-----------------------------4---4----4/6-----------------|
D-4---4---4-4--4--4-----2~---2----2-4---4----4/6-----4~----------|
A-2---2---4-4--4--4-----2~---2----2-2---2----2/4-----4~----------|
E---------2-2--2--2-----0~---0----0------------------2~----------|
 
e----------------------------------------------------------------|
B----------------------------------------------------------------|
G----------------------------------------------------------------|
D--4---4---4---4---4---2~--------2-2-2-2-2-2-2-2---4~------------|
A--4---4---4---4---4---2~--------2-2-2-2-2-2-2-2---4~------------|
E--2---2---2---2---2---0~--------0-0-0-0-0-0-0-0--2~-------------|

prechorus2
e----------------------------------------------------------------|
B----------------------------------------------------------------|
G--4~4~-/6-6~--6-6-6~---6----------------------------------------|
D--4~4~-/6-6~--6-6-6~---6----4~-4~-4~----------------------------|
A--2~2~-/4-4~--4-4-4~---4----4~-4~-4~----------------------------|
E---------------------------2~-2~-2~-----------------------------|

Solo
e----------------------------------------------------------------|
B----------------------------------------------------------------|
G----------------------------------------------------------------|
D----------------------------------------------------------------|
A---2/9~~~~~2/14~-13~-9-6~~~-2/14~-13~-9-4~~~--/14~-----14/16~~~-|
E---------------------------------------------------14~----------|

e----------------------------------------------------------------|
B----------------------------------------------------------------|
G----------------------------------------------------------------|
D----------------------------------------------------------------|
A---13/14/16~~~~~--/19~~-18~-14--11~~--/19~~-18~-14-9~~----------|
E----------------------------------------------------------------|

e--------------------------------------|     order:
B------------------^17---^17---^17^17--|     Intro 
G----------------------(TREMOLO)-------|     riff1 
D--------------------------------------|     Verse 
A--/19~~--19~/21~----------------------|     prechorus
E------19~~----------------------------|     chorus
                                             Intro+riff1
                                             Verse
outro                                        prechorus2
e--------------------------------------|     Solo
B--------------------------------------|     chorus
G--------------------------------------|     outro
D--4-4---4-4---4-4-4-------------------|
A--4-4---4-4---4-4-4-------------------|
E--2-2---2-2---2-2-2-------------------|     
                              
Thanks, please rate it after you learn it.
Добавлено: 07.03.2012
Другие материалы по этой песне:

Страница создана 22.02.2012
http://primanota.ru/edguy/king-of-fools-chords.htm
Привет, Гость.
Предлагаем пройти революционный курс по гитаре.
Подарок от PrimaNota.Ru, забирай!