PrimaNota.ru - самый крупный в мире бесплатный архив песенных текстов, аккордов, табулатур и нот


Eddie Cochran - I Remember - аккорды и текст, видео

Регистрация Запомнить меня
Войти через:  Facebook Google Twitter Vk Yandex Mail.ru

Eddie Cochran - I Remember - аккорды и текст, видео

Печатать
Просмотров: 307
I Remember
Eddie Cochran
Its my first Chord/tab song so be gentle, well i like to play this way!

This is how i play my intro

e[---------------------] e[---------------------]
B[---------------------] B[---------------------]
G[---------------------] G[---------------------]
D[-5--7--5-------------] D[---------------------]
A[----------7-7--3-----] A[-3--3--3--2--0--0--0-]
E[---------------------] E[---------------------]  




       e[---------------------]  e[---------------------]
       B[---------------------]  B[---------------------]                   
       G[---------------------]  G[---------------------]
       D[---------------------]  D[---------------------]
       A[---------------------]  A[---0--2---3----------]
       E[-3--1--1--1--1--3----]  E[-3-------------------]




      C             Am  Em   F        G          C
I keep thinkin',                   hopin' and prayin'
 Am  Em   F        G           C     Am F      G           C    Am F G
              That you will remember       and come back to me
C                Am Em F  G              C     Am   F
When you remember         the happiness of our past
    G              C               Am F
Do you think this heartache will last
G          C
Remember, oh yes
F                Em
If love's a game, for you can't win
F                  C
Remember, I lost, losing you
F                     Em
If you find, in time, your love is mine
F                        G
Come back, I'll be waiting for you
   
I keep thinkin',                   hopin' and prayin'

That you will remember and come back to me
Добавлено: 13.03.2012
Другие материалы по этой песне:
  • Аккорды и текст

Страница создана 13.03.2012
http://primanota.ru/eddie-cochran/i-remember-chords.htm
Привет, Гость.
Предлагаем пройти революционный курс по гитаре.
Подарок от PrimaNota.Ru, забирай!