PrimaNota.ru - самый крупный в мире бесплатный архив песенных текстов, аккордов, табулатур и нот


Eagles Of Death Metal - I Gotta Feelin Just Nineteen - таба, видео

Регистрация Запомнить меня
Войти через:  Facebook Google Twitter Vk Yandex Mail.ru

Eagles Of Death Metal - I Gotta Feelin Just Nineteen - таба, видео

Печатать
Просмотров: 161
Уроки эстрадного вокала в Санкт-Петербурге
I wa amazed to see this song wasnt tabbed, its the best song on death by sexy

Tuning: G-G-D-G-B-D Note: Realy realy important tune your guitar to this tuning!



Verse

D|------------------------------------------|
B|------------------------------------------|
G|------------------------------------------|
D|---3-/-5-5-5-5-5-xx---3-/-5-5-5-5-5-xx----|
G|---3-/-5-5-5-5-5-xx---3-/-5-5-5-5-5-xx----|
G|---3-/-5-5-5-5-5-xx---3-/-5-5-5-5-5-xx----| 
         
D|------------------------------------------|
B|------------------------------------------|
G|------------------------------------------|
D|---1-/-2-2-2-2-2-xx---1-/-2-2-2-2-2-xx----|
G|---1-/-2-2-2-2-2-xx---1-/-2-2-2-2-2-xx----|
G|---1-/-2-2-2-2-2-xx---1-/-2-2-2-2-2-xx----|

Play x4

 
Chorus

D|-----------------------------------------------|
B|-----------------------------------------------|
G|-----------------------------------------------|
D|---3-/-5-5-5-5-5-xx---5-/-10-10-10-10-10-xx----|
G|---3-/-5-5-5-5-5-xx---5-/-10-10-10-10-10-xx----|
G|---3-/-5-5-5-5-5-xx---5-/-10-10-10-10-10-xx----|

D|------------------------------------------|
B|------------------------------------------|
G|------------------------------------------|
D|---1-/-2-2-2-2-2-xx---1-/-2-2-2-2-2-xx----|
G|---1-/-2-2-2-2-2-xx---1-/-2-2-2-2-2-xx----|
G|---1-/-2-2-2-2-2-xx---1-/-2-2-2-2-2-xx----|

D|------------------------------------------|
B|------------------------------------------|
G|------------------------------------------|
D|---3-/-5-5-5-5-5-xx---3-/-5-5-5-5-5-xx----|
G|---3-/-5-5-5-5-5-xx---3-/-5-5-5-5-5-xx----|
G|---3-/-5-5-5-5-5-xx---3-/-5-5-5-5-5-xx----|

D|------------------------------------------|
B|------------------------------------------|
G|------------------------------------------|
D|---1-/-2-2-2-2-2-xx---1-/-2-2-2-2-2-xx----|
G|---1-/-2-2-2-2-2-xx---1-/-2-2-2-2-2-xx----|
G|---1-/-2-2-2-2-2-xx---1-/-2-2-2-2-2-xx----|

D|-----------------------------------------------|
B|-----------------------------------------------|
G|-----------------------------------------------|
D|---3-/-5-5-5-5-5-xx---5-/-10-10-10-10-10-xx----|
G|---3-/-5-5-5-5-5-xx---5-/-10-10-10-10-10-xx----|
G|---3-/-5-5-5-5-5-xx---5-/-10-10-10-10-10-xx----|

D|------------------------------------------|
B|------------------------------------------|
G|------------------------------------------|
D|---1-/-2-2-2-2-2-xx---1-/-2-2-2-2-2-xx----|
G|---1-/-2-2-2-2-2-xx---1-/-2-2-2-2-2-xx----|
G|---1-/-2-2-2-2-2-xx---1-/-2-2-2-2-2-xx----|

D|-----------------------------------------------|
B|-----------------------------------------------|
G|-----------------------------------------------|
D|---3-/-5-5-5-5-5-xx---5-/-10-10-10-10-10-----|
G|---3-/-5-5-5-5-5-xx---5-/-10-10-10-10-10-----|
G|---3-/-5-5-5-5-5-xx---5-/-10-10-10-10-10-----|

D|------------------------------------------|
B|------------------------------------------|
G|------------------------------------------|
D|---2-2-1--2-2-1---2-2-1--2--2-2-----------|
G|---2-2-1--2-2-1---2-2-1--2--2-2-----------|
G|---2-2-1--2-2-1---2-2-1--2--2-2-----------|



Bridge

D|------------------------------------------|
B|------------------------------------------|
G|------------------------------------------|
D|---3-/-5-5-5-5-5----3-/-5-5-5-5-5---------|
G|---3-/-5-5-5-5-5----3-/-5-5-5-5-5---------|
G|---3-/-5-5-5-5-5----3-/-5-5-5-5-5---------| 
         
D|-----------------------------------------|
B|-----------------------------------------|
G|-----------------------------------------|
D|---1-/-2-2-2-2-2----1-/-2-2-2-2-2-xx-----|
G|---1-/-2-2-2-2-2----1-/-2-2-2-2-2-xx-----|
G|---1-/-2-2-2-2-2----1-/-2-2-2-2-2-xx-----|




Verse

D|------------------------------------------|
B|------------------------------------------|
G|------------------------------------------|
D|---3-/-5-5-5-5-5-xx---3-/-5-5-5-5-5-xx----|
G|---3-/-5-5-5-5-5-xx---3-/-5-5-5-5-5-xx----|
G|---3-/-5-5-5-5-5-xx---3-/-5-5-5-5-5-xx----| 
         
D|------------------------------------------|
B|------------------------------------------|
G|------------------------------------------|
D|---1-/-2-2-2-2-2-xx---1-/-2-2-2-2-2-xx----|
G|---1-/-2-2-2-2-2-xx---1-/-2-2-2-2-2-xx----|
G|---1-/-2-2-2-2-2-xx---1-/-2-2-2-2-2-xx----|

Play x3

The 4th Time Is diffrent To The 1st 2nd and 3rd. It Goes Like This

D|-----------------------------------|
B|-----------------------------------|
G|-----------------------------------|
D|---3-/-5-5-55555555555xx-----------|
G|---3-/-5-5-55555555555xx-----------|
G|---3-/-5-5-55555555555xx-----------|

D|------------------------------------------|
B|------------------------------------------|
G|------------------------------------------|
D|---1-/-2-2-2-2-2-xx---1-/-2-2-2-2-2-xx----|
G|---1-/-2-2-2-2-2-xx---1-/-2-2-2-2-2-xx----|
G|---1-/-2-2-2-2-2-xx---1-/-2-2-2-2-2-xx----|


Chorus

D|-----------------------------------------------|
B|-----------------------------------------------|
G|-----------------------------------------------|
D|---3-/-5-5-5-5-5-xx---5-/-10-10-10-10-10-xx----|
G|---3-/-5-5-5-5-5-xx---5-/-10-10-10-10-10-xx----|
G|---3-/-5-5-5-5-5-xx---5-/-10-10-10-10-10-xx----|

D|------------------------------------------|
B|------------------------------------------|
G|------------------------------------------|
D|---1-/-2-2-2-2-2-xx---1-/-2-2-2-2-2-xx----|
G|---1-/-2-2-2-2-2-xx---1-/-2-2-2-2-2-xx----|
G|---1-/-2-2-2-2-2-xx---1-/-2-2-2-2-2-xx----|

D|-----------------------------------------------|
B|-----------------------------------------------|
G|-----------------------------------------------|
D|---3-/-5-5-5-5-5-xx---5-/-10-10-10-10-10-xx----|
G|---3-/-5-5-5-5-5-xx---5-/-10-10-10-10-10-xx----|
G|---3-/-5-5-5-5-5-xx---5-/-10-10-10-10-10-xx----|

D|------------------------------------------|
B|------------------------------------------|
G|------------------------------------------|
D|---1-/-2-2-2-2-2-xx---1-/-2-2-2-2-2-xx----|
G|---1-/-2-2-2-2-2-xx---1-/-2-2-2-2-2-xx----|
G|---1-/-2-2-2-2-2-xx---1-/-2-2-2-2-2-xx----|

D|---------------------------------------------|
B|---------------------------------------------|
G|---------------------------------------------|
D|---3-/-5-5-5-5-5-xx---5-/-10-10-10-10-10-----|
G|---3-/-5-5-5-5-5-xx---5-/-10-10-10-10-10-----|
G|---3-/-5-5-5-5-5-xx---5-/-10-10-10-10-10-----|

D|------------------------------------------|
B|------------------------------------------|
G|------------------------------------------|
D|---1-/-2-2-2-2-2-xx---1-/-2-2-2-2-2-xx----|
G|---1-/-2-2-2-2-2-xx---1-/-2-2-2-2-2-xx----|
G|---1-/-2-2-2-2-2-xx---1-/-2-2-2-2-2-xx----|

D|------------------------------------------|
B|------------------------------------------|
G|------------------------------------------|
D|---2-2-1--2-2-1---2-2-1--2--2-2-----------|
G|---2-2-1--2-2-1---2-2-1--2--2-2-----------|
G|---2-2-1--2-2-1---2-2-1--2--2-2-----------|


Then The Verse

D|------------------------------------------|
B|------------------------------------------|
G|------------------------------------------|
D|---3-/-5-5-5-5-5-xx---3-/-5-5-5-5-5-xx----|
G|---3-/-5-5-5-5-5-xx---3-/-5-5-5-5-5-xx----|
G|---3-/-5-5-5-5-5-xx---3-/-5-5-5-5-5-xx----| 
         
D|------------------------------------------|
B|------------------------------------------|
G|------------------------------------------|
D|---1-/-2-2-2-2-2-xx---1-/-2-2-2-2-2-xx----|
G|---1-/-2-2-2-2-2-xx---1-/-2-2-2-2-2-xx----|
G|---1-/-2-2-2-2-2-xx---1-/-2-2-2-2-2-xx----|

Play x4

Chorus

D|-----------------------------------------------|
B|-----------------------------------------------|
G|-----------------------------------------------|
D|---3-/-5-5-5-5-5-xx---5-/-10-10-10-10-10-xx----|
G|---3-/-5-5-5-5-5-xx---5-/-10-10-10-10-10-xx----|
G|---3-/-5-5-5-5-5-xx---5-/-10-10-10-10-10-xx----|

D|------------------------------------------|
B|------------------------------------------|
G|------------------------------------------|
D|---1-/-2-2-2-2-2-xx---1-/-2-2-2-2-2-xx----|
G|---1-/-2-2-2-2-2-xx---1-/-2-2-2-2-2-xx----|
G|---1-/-2-2-2-2-2-xx---1-/-2-2-2-2-2-xx----|

D|-----------------------------------------------|
B|-----------------------------------------------|
G|-----------------------------------------------|
D|---3-/-5-5-5-5-5-xx---5-/-10-10-10-10-10-xx----|
G|---3-/-5-5-5-5-5-xx---5-/-10-10-10-10-10-xx----|
G|---3-/-5-5-5-5-5-xx---5-/-10-10-10-10-10-xx----|

D|------------------------------------------|
B|------------------------------------------|
G|------------------------------------------|
D|---1-/-2-2-2-2-2-xx---1-/-2-2-2-2-2-xx----|
G|---1-/-2-2-2-2-2-xx---1-/-2-2-2-2-2-xx----|
G|---1-/-2-2-2-2-2-xx---1-/-2-2-2-2-2-xx----|

D|---------------------------------------------|
B|---------------------------------------------|
G|---------------------------------------------|
D|---3-/-5-5-5-5-5-xx---5-/-10-10-10-10-10-----|
G|---3-/-5-5-5-5-5-xx---5-/-10-10-10-10-10-----|
G|---3-/-5-5-5-5-5-xx---5-/-10-10-10-10-10-----|

D|------------------------------------------|
B|------------------------------------------|
G|------------------------------------------|
D|---1-/-2-2-2-2-2-xx---1-/-2-2-2-2-2-xx----|
G|---1-/-2-2-2-2-2-xx---1-/-2-2-2-2-2-xx----|
G|---1-/-2-2-2-2-2-xx---1-/-2-2-2-2-2-xx----|

D|---------------------------------------------|
B|---------------------------------------------|
G|---------------------------------------------|
D|---2-2-1--2-2-1---2-2-1--2--2-2---2-LetRing--|
G|---2-2-1--2-2-1---2-2-1--2--2-2---2-LetRing--|
G|---2-2-1--2-2-1---2-2-1--2--2-2---2-LetRing--|


Thats It Pritty Simple eh! tell me what you think
Bye Bye :D 




 
Добавлено: 01.06.2012
Другие материалы по этой песне:

Страница создана 03.05.2012
http://primanota.ru/eagles-of-death-metal/i-gotta-feelin-just-nineteen-chords.htm
Привет, Гость.
Предлагаем пройти революционный курс по гитаре.
Подарок от PrimaNota.Ru, забирай!