PrimaNota.ru - самый крупный в мире бесплатный архив песенных текстов, аккордов, табулатур и нот


Eagles Of Death Metal - Dont Speak - таба, видео

Регистрация Запомнить меня
Войти через:  Facebook Google Twitter Vk Yandex Mail.ru

Eagles Of Death Metal - Dont Speak - таба, видео

Печатать
Просмотров: 375
ok this is really simple...

Intro
e|------------------------------------------------------------|
B|------------------------------------------------------------|
G|------------------------------------------------------------|
D|---8-8-8-8------8-8-8-8------8-8------^----------^----------|
A|---8-8-8-8------8-8-8-8------8-8--4-6-6-4---4-6--6--6-4-----|
E|---6-6-6-6------6-6-6-6------6-6----------6------------6-4--|
                                  |------------x4-------------| 
Pace em out                                   
e|---------|
B|---------|
G|---------|
D|-8--8-8--|x4
A|-8--8-8--|
E|-6--6-6--|

e|-------------------------------|        
B|-------------------------------|          
G|-------------------------------|        
D|-8------^----------^-----------|x4      
A|-8--4-6-6-4---4-6--6--6-4------|        
E|-6-6--------6-------------6-4--|        

Pace em out...like in the song
e|---------|
B|---------|
G|---------|
D|-8--8-8--|x4
A|-8--8-8--|
E|-6--6-6--|

e|-------------------------------|        
B|-------------------------------|          
G|-------------------------------|        
D|-8------^----------^-----------|x4      
A|-8--4-6-6-4---4-6--6--6-4------|       
E|-6-6--------6-------------6-4--|

e|---------|
B|---------|
G|---------|
D|-8--8-8--|x1
A|-8--8-8--|
E|-6--6-6--|

Laughter Part HAHAHAHAHA
[Insert Solo Here] on top of what is below

e|-------------------------------|          
B|-------------------------------|        
G|-8------^----------^-----------|x2      
D|-8--4-6-6-4---4-6--6--6-4------|        
A|-6-6--------6-------------6-4--|
E|-------------------------------|

e|-------------------------------|        
B|-------------------------------|          
G|-------------------------------|        
D|-8------^----------^-----------|x2      
A|-8--4-6-6-4---4-6--6--6-4------|        
E|-6-6--------6-------------6-4--|

Listen to song for the bends and the scratches
e|---------|      
B|---------|
G|---------|
D|-8--8-8--|x11
A|-8--8-8--|
E|-6--6-6--|

Play this to the end and your done
e|-------------------------------|        
B|-------------------------------|          
G|-------------------------------|        
D|-8------^----------^-----------|     
A|-8--4-6-6-4---4-6--6--6-4------|        
E|-6-6--------6-------------6-4--|

this is really basic...hope it works for you as well as me. Enjoy.
Добавлено: 04.03.2012
Другие материалы по этой песне:

Страница создана 04.03.2012
http://primanota.ru/eagles-of-death-metal/dont-speak-chords.htm
Привет, Гость.
Предлагаем пройти революционный курс по гитаре.
Подарок от PrimaNota.Ru, забирай!