PrimaNota.ru - самый крупный в мире бесплатный архив песенных текстов, аккордов, табулатур и нот


Duman - Manas305 Yok - таба

Регистрация Запомнить меня
Войти через:  Facebook Google Twitter Vk Yandex Mail.ru

Duman - Manas305 Yok - таба

Печатать
Просмотров: 118
Уроки эстрадного вокала в Санкт-Петербурге
Riff:
E----------------------------|
B---7h8p7--5-7--3-5-3---2-0--|
G----------------------------|
D----------------------------|
A----------------------------|
E----------------------------|

E----------------------------|
B---7h8p7--5-7--3-5----------|
G----------------------------|
D----------------------------|
A----------------------------|
E----------------------------|

E----------------------------|
B---7h8p7--5-7--3-5-3---2-0--|
G----------------------------|
D----------------------------|
A----------------------------|
E----------------------------|

E----------------------------|
B---3h5p3--2-0--0-2----------|
G----------------------------|
D----------------------------|
A----------------------------|
E----------------------------|


Bm	     E	           Bm             E
Akıldan geçen yolu kazmışlar ben geçer miyim yok

Bm	     E	           G             A
ah bu diyarda kimi yakmışlar haberin var mı koç

Bm	     E	           Bm             E
saygıdan geçen yolu yakmışlar ben geçermiyim yok

Bm	     E	           G             A
ah bu diyarda kimi asmışlar haberin var mı koç

Bm	     E	           Bm              E
solumdan geçen yolu asmışlar ben geçer miyim yok

Bm	     E	           G              A
komşu toprağa kimi gömmüşler haberin var mı koç


E F# G Bm     A   E
manası yoktur yok yok  bu alemin

E F# G Bm     A   E
manası yoktur yok yok bu alemin

E F# G Bm     A  E
alası yoktur yok yok bu gafletin
Добавлено: 14.04.2012
Другие материалы по этой песне:

Страница создана 14.04.2012
http://primanota.ru/duman/manas305-yok-chords.htm
Привет, Гость.
Предлагаем пройти революционный курс по гитаре.
Подарок от PrimaNota.Ru, забирай!