PrimaNota.ru - самый крупный в мире бесплатный архив песенных текстов, аккордов, табулатур и нот


Duman - Ah - таба, видео

Регистрация Запомнить меня
Войти через:  Facebook Google Twitter Vk Yandex Mail.ru

Duman - Ah - таба, видео

Печатать
Просмотров: 141
Ah
Duman

  (intro ya da ana riff) 
                
e|----------------|----------------|----------------|----------------|
B|------------6---|4---3-----------|----------------|----------------|
G|--------7-------|--------5---3---|----------------|----------------|
D|----5-----------|----------------|----1---1---0---|1---0---1---0---| x4
A|----------------|----------------|3---3---3---3---|3---3---3---3---|
E|/6--------------|----------------|3---------------|----------------|
                                        PM...........................


  (sözler)
  
e|----------------|----------------|----------------|----------------|
B|----------------|----------------|----------------|----------------|
G|----------------|----------------|----------------|----------------|
D|----------------|----------------|--------1---0---|1---0---1---0---| x3
A|5---5---5---5---|3---3---3---3---|3---3---3---3---|3---3---3---3---|
E|6---6---6---6---|4---4---4---4---|3---3-----------|----------------|
  PM.................................................................

  1........yarışmadı
  2........yenilmedi
  3........açık seçik sizle oynamadı



e|----------------|----------------|----------------|----------------|
B|----------------|----------------|----------------|----------------|
G|----------------|----------------|5---5---5---5---|5---5---5---5---|
D|----------------|----------------|5---5---5---5---|5---5---5---5---|
A|5---5---5---5---|3---3---3---3---|3---3---3---3---|3---3---3---3---|
E|6---6---6---6---|4---4---4---4---|3---3---3---3---|3---3---3---3---|
  PM............................................

  4........gerilmedi


  
  (nakarat)(akorlar power çalınıyo)
 
  G     G#     A#     G#
  ah! eğleniyor kendi başına

  G     G#       [A#] [G#]
  ah! neşesi yeter

  G     G#        A#     G#
  ah! umurunda mı sandın bu dünya

  G     G#       [A#] [G#]
  ah! neşesi yeter



  NOT: parça temel olarak yukardaki 3 bölümden oluşuyo. bu haliyle tek gitar olarak gayet iyi çalınıyo.
       [] parantezler ve PM..... sağ elle yarı susturulmuş bölümleri gösteriyo. ^ işareti de üzerinde  
       bulunduğu notaya 1/2 bend yapılacağını, ve (varsa) parantez içindeki notaların aynı bend vuruşuyla 
       çalınacağını gösteriyo.  
       sololara gelince...

  (solo1) 00:11 / 00:48
  (intro ile çalınan...)
e|----------------|^---------------|----------------|----------------|
B|3---------------|3(4)(3)---------|----------------|----------------|
G|-------5---3-5--|-------5---3-5--|5/--------------|----------------|
D|----------------|----------------|----------------|----------------|
A|----------------|----------------|----------------|----------------|
E|----------------|----------------|----------------|----------------|




  (ara solo) 01:55
e|-------------------|-------------------|------------------ |--------------------|
B|----13-------------|----13-------------|----13---------15--|----13--------------|
G|/12----12--12/10---|/12----12------^---|/12---------12-----|/12----12--12/10----|
D|-----------------10|------------13-12--|-------------------|-----------------10-|
A|-------------------|-------------------|-------------------|--------------------|
E|-------------------|-------------------|-------------------|--------------------|



  (son solo) 03:30 
  (en son doğaçlama bölümü eksik)
e|----^-----------|----^-----------|----^-----------|----------------|
B|3---3(4)(3)-----|3-5-3(4)(3)-----|3---3(4)(3)-----|----------------|
G|------------5--3|------------5--3|------------5--3|----------------| 
D|----------------|----------------|----------------|----------------|
A|----------------|----------------|----------------|----------------|
E|----------------|----------------|----------------|----------------|

e|----^-----------|----^-----------|----^-----------|----------------------|
B|3---3(4)(3)-----|3-5-3(4)(3)-----|3---3(4)(3)-----|------^---------------|
G|------------5--3|------------5--3|------------5--3|5p3-5-5(6)(5)p3------| 
D|----------------|----------------|----------------|----------------5-3-5-|
A|----------------|----------------|----------------|----------------------|
E|----------------|----------------|----------------|----------------------|

e|----------------------|----------------------|----------------------|------------------------|
B|------^---------------|------^---------------|------^---------------|------^-----------------|
G|5p3-5-5(6)(5)p3-------|5p3-5-5(6)(5)p3-------|5p3-5-5(6)(5)p3-------|5p3-5-5(6)(5)p3-----3/12|
D|----------------5-3-5-|----------------5-3-5-|----------------5-3-5-|----------------5-3-----|
A|----------------------|----------------------|----------------------|------------------------|
E|----------------------|----------------------|----------------------|------------------------|

e|----------^-------------------|----------^-------------------|----------^-------------------|----------^-------------------|
B|13p11-13-13(14)(13)p11--------|13p11-13-13(14)(13)p11--------|13p11-13-13(14)(13)p11--------|13p11-13-13(14)(13)p11--------|
G|----------------------12-10-12|----------------------12-10-12|----------------------12-10-12|----------------------12-10-12|
D|------------------------------|------------------------------|------------------------------|------------------------------|
A|------------------------------|------------------------------|------------------------------|------------------------------|
E|------------------------------|------------------------------|------------------------------|------------------------------|

Добавлено: 02.03.2012
Другие материалы по этой песне:

Страница создана 02.03.2012
http://primanota.ru/duman/ah-chords.htm
Привет, Гость.
Предлагаем пройти революционный курс по гитаре.
Подарок от PrimaNota.Ru, забирай!