PrimaNota.ru - самый крупный в мире бесплатный архив песенных текстов, аккордов, табулатур и нот


Duke Dumont - Wont Look Back - бас-таба, видео

Регистрация Запомнить меня
Войти через:  Facebook Google Twitter Vk Yandex Mail.ru

Duke Dumont - Wont Look Back - бас-таба, видео

Печатать
Просмотров: 144
-------------------------------------------------------------------------------
                        Won't Look Back - Duke Dumont
-------------------------------------------------------------------------------
Tabbed by: M. Traganza
E-mail: mtraganza@aol.com

Tuning: Standard

This is the synth riff that starts after "I won't look back, won't look, won't
 look back" 


G|---------------------------------------------------------------------------|
D|-6--6----------4--4--4--4--4-6-4----------6--4--4--------------------------|
A|------4--7--7-------------------7--4--4-----------6--6--7--7--7--7---------|
E|---------------------------------------------------------------------------|

G|---------------------------------------------------------------------------|
D|-6--6----------4--4--4--4--4-6-4----------6--4--4--------------------------|
A|------4--7--7-------------------7--4--4-----------6--6--7--7--7------------|
E|---------------------------------------------------------------------------|



| /  slide up
| \  slide down
| h  hammer-on
| p  pull-off
| ~  vibrato
| +  harmonic
| x  Mute note
===============================================================================
Добавлено: 10.07.2015
Вам также может быть интересно:
Другие материалы по этой песне:
  • Аккорды и текст

Страница создана 10.07.2015
http://primanota.ru/duke-dumont/wont-look-back-chords.htm
Привет, Гость.
Предлагаем пройти революционный курс по гитаре.
Подарок от PrimaNota.Ru, забирай!