PrimaNota.ru - самый крупный в мире бесплатный архив песенных текстов, аккордов, табулатур и нот


Dream Theater - Metropolis - текст песни, таба, видео

Регистрация Запомнить меня
Войти через:  Facebook Google Twitter Vk Yandex Mail.ru

Dream Theater - Metropolis - текст песни, таба, видео

Печатать
Просмотров: 187
Note- this is not my own work. There was a request for it so I converted the GP to 
standard tab. All credit goes to Lafit86.
                                                           
Metropolis Part 1-Dream Theater

     W                   W                   W                 
E||-------------------|-------------------|-------------------|
B||-------------------|-------------------|-------------------|
G||-------------------|-------------------|-------------------|
D||-------------------|-------------------|-------------------|
A||-------------------|-------------------|-------------------|
E||-------------------|-------------------|-------------------|


  W                   W                   W                   W                 
-------------------|-------------------|-------------------|-------------------|
-------------------|-------------------|-------------------|-------------------|
-------------------|-------------------|-------------------|-------------------|
-------------------|-------------------|-------------------|-------------------|
-------------------|-------------------|-------------------|-------------------|
-------------------|-------------------|-------------------|-------------------|


                      PM PM PM PM                                     
  W                   S  S  S  S  E  E  H           W                 
-------------------|-----------------------------|-------------------|
-------------------|-----------------------------|-------------------|
-------------------|-----------------------------|-------------------|
-------------------|--------------2--------------|-------------------|
-------------------|--------------2--------------|-------------------|
-------------------|--0--0--0--0--0--------------|-------------------|


  PM PM PM PM                                      
  S  S  S  S  E  Q.     E  E     W                 
------------------------------|-------------------|
------------------------------|-------------------|
------------------------------|-------------------|
--------------2---------2-----|-------------------|
--------------2---------2-----|-------------------|
--0--0--0--0--0---------0-----|-------------------|


  PM PM PM PM                                       
  S  S  S  S  E  Q.     S S E     W                 
-------------------------------|-------------------|
-------------------------------|-------------------|
-------------------------------|-------------------|
--------------2---------2-2----|-------------------|
--------------2---------2-2----|-------------------|
--0--0--0--0--0---------0-0----|-------------------|


  PM PM PM PM                                      
  S  S  S  S  E  Q.     E  E     W                 
------------------------------|-------------------|
------------------------------|-------------------|
------------------------------|-------------------|
--------------2---------2-----|-------------------|
--------------2---------2-----|-------------------|
--0--0--0--0--0---------0-----|-------------------|


  PM PM PM PM                          PM PM                                 
  S  S  S  S  E  Q.     Q       Q.     S  S  E.  E.  E     W                 
-----------------------------|--------------------------|-------------------|
-----------------------------|--------------------------|-------------------|
-----------------------------|--------------------------|-------------------|
--------------2--------------|-------------------5---2--|--L----------------|
--------------2--------------|---------------0---5---2--|--L----------------|
--0--0--0--0--0--------------|---------0--0--2---3---0--|--L----------------|


         PM PM                                              PM PM             
  Q.     S  S  E.  E.  E     H        E.  E.  E      Q.     S  S  E.  E.  E   
--------------------------|-----------3-----------|--------------------------|
--------------------------|---------------3-------|--------------------------|
-----------------------5--|--L----------------5~--|--L-----------------------|
--L----------------5---5--|--L--------------------|-------------------5---2--|
--L------------0---5---3--|--L--------------------|---------------0---5---2--|
--L------0--0--2---3------|-----------------------|---------0--0--2---3---0--|


             \0/         \1/     PM PM                                       
  H          H           Q.      S  S  E.  E.  E     H        E.   E.   E    
----------------------|---------------------------|-------------------------|
----------------------|---------------------------|-------------------------|
-----------<>4--------|--0~--------------------5--|--L--------5S---7S---9S--|
--L-------------------|--------------------5---5--|--L----------------------|
--L-------------------|----------------0---5---3--|--L--------3S---5S---7S--|
--L-------------------|----------0--0--2---3------|-------------------------|


         W   PM PM                   PM PM   PM PM PM PM   PM PM   PM PM PM  
   E.    E.  S  S  E.  E.  E     S S S  S  S S  S  S  S  S S  S  S S  S  S   
------------------------------|---------------------------------------------|
------------------------------|---------------------------------------------|
--11S---12--------------------|---------------------------------------------|
-----------------------5---2--|--L------------------------------------------|
---9S---10---------0---5---2--|--L-7-------7-------------7-------7----------|
-------------0--0--2---3---0--|--L---0--0----0--0--0--0----0--0----0--0--0--|


  PM   PM PM   PM PM PM                                         
  S  S S  S  S S  S  S  E.  E.  E     Q     Q      Q     Q      
-----------------------------------|---------------------------|
-----------------------------------|---------------------------|
--------------------------------5--|--L----12S----11S----9S----|
----------------------------5---5--|--L------------------------|
-----7-------7----------0---5---3--|--L----10S-----9S----7S----|
--0----0--0----0--0--0--2---3------|---------------------------|


  Q     Q    E.  E.  E     E  S S S  S S S S  S S S S  S S S  
------------------------|---------0--L-0-0-0--L-0-0-0--L-0-0-|
------------------------|-----5-5-3S-5-5-5-5S-7-7-7-7S-8-8-8-|
--7S----5----4---2------|------------------------------------|
-------------4---2---2--|--L---------------------------------|
--5S----3----2---0---2--|--L---------------------------------|
---------------------0--|--L---------------------------------|


  S   S  S  S  S   S  S  S E.  E.  E     H        E.   E.   E    
--0---L--0--0--0---L--0--0------------|-------------------------|
--8S-10-10-10-10S-12-12-12------------|-------------------------|
-----------------------------------5--|--L--------5S---7S---9S--|
-------------------------------5---5--|--L----------------------|
---------------------------0---5---3--|--L--------3S---5S---7S--|
---------------------------2---3------|-------------------------|


         W   PM PM                        NH  NH  NH  NH  NH       
   E.    E.  S  S  E.  E.  E     Q.       S   S   S   S   E  Q     
------------------------------|-----------------------------------|
------------------------------|-------------------------<>5--L----|
--11S---12--------------------|---------------------<>5-----------|
-----------------------5---2--|--L--------------<>5---------------|
---9S---10---------0---5---2--|--L----------<>5-------------------|
-------------0--0--2---3---0--|--L------<>4-----------------------|


    \1/                    PM PM PM PM PM PM PM PM PM           
    H        Q    S E.     S  S  S  S  S  S  S  S  S  Q.     S  
------------------------|--------------------------------------|
--<>5--------L----5-----|--------------------------------------|
------------------------|-----------------------------5------L-|
------------------------|--2--2--2--2--2--------------2--------|
------------------------|--------------------------------------|
------------------------|-----------------0--0--0--0-----------|


  PM PM PM PM PM PM PM PM PM              PM PM PM PM PM PM PM PM PM           
  S  S  S  S  S  S  S  S  S  E.  S E.     S  S  S  S  S  S  S  S  S  Q.     S  
---------------------------------------|--------------------------------------|
---------------------------------------|--------------------------------------|
-----------------------------2-----7---|-----------------------------4------L-|
--2--2--2--2--2--------------0-----5---|--2--2--2--2--2--------------2------L-|
-----------------0--0--0--0------0-----|--------------------------------------|
---------------------------------------|-----------------0--0--0--0-----------|


  PM PM PM PM PM PM PM PM PM              PM PM PM PM PM PM PM PM PM           
  S  S  S  S  S  S  S  S  S  E.  S E.     S  S  S  S  S  S  S  S  S  Q.     S  
---------------------------------------|--------------------------------------|
---------------------------------------|--------------------------------------|
-----------------------------2-----7---|-----------------------------5------L-|
--2--2--2--2--2--------------0-----5---|--2--2--2--2--2--------------2------L-|
-----------------0--0--0--0------0-----|--------------------------------------|
---------------------------------------|-----------------0--0--0--0-----------|


  PM PM PM PM PM   PM   PM PM PM PM PM PM PM PM PM PM PM PM  
                        |--6--|  |--6--|  |--6--|  |--6--|   
  S  S  S  S  S  S S  S S  S  S  S  S  S  S  S  S  S  S  S   
------------------------------------------------------------|
------------------------------------------------------------|
------------------------5--4--2-----------------------------|
--2--2--2--2--2------------------5--4--2--------------------|
-------------------0----------------------5--3--2-----------|
---------------------------------------------------5--3--2--|


  PM PM PM PM PM PM PM PM PM           
  S  S  S  S  S  S  S  S  S  Q.     S  
--------------------------------------|
--------------------------------------|
-----------------------------4------L-|
--2--2--2--2--2--------------2------L-|
--------------------------------------|
-----------------0--0--0--0-----------|


  PM PM PM PM PM   PM   PM PM PM PM PM PM PM PM PM PM PM PM  
                        |--6--|  |--6--|  |--6--|  |--6--|   
  S  S  S  S  S  S S  S S  S  S  S  S  S  S  S  S  S  S  S   
------------------------------------------------------------|
------------------------------------------------------------|
------------------------5--4--2-----------------------------|
--2--2--2--2--2------------------5--4--2--------------------|
-------------------0----------------------5--3--2-----------|
---------------------------------------------------5--3--2--|


  PM PM PM PM        PM PM PM PM PM PM PM    PM PM PM PM     
  |--3--|  |--3-|    |--3--|  |--3--|  |-3|  |--3--|  |-3|   
  S  S  S  S  S S E  S  S  S  S  S  S  S  E  S  S  S  S  E   
------------------------------------------------------------|
------------------------------------------------------------|
------------------------------------------------------------|
------------------------------------------------------------|
------------------------------------------------------------|
--0--0--0--0---------0--0--0--0--0--0--0-----0--0--0--0-----|


  PM PM PM PM        PM PM PM PM PM PM PM    PM PM PM PM     
  |--3--|  |--3-|    |--3--|  |--3--|  |-3|  |--3--|  |-3|   
  S  S  S  S  S S E  S  S  S  S  S  S  S  E  S  S  S  S  E   
------------------------------------------------------------|
------------------------------------------------------------|
------------------------------------------------------------|
------------------------------------------------------------|
------------------------------------------------------------|
--0--0--0--0---------0--0--0--0--0--0--0-----0--0--0--0-----|


  PM PM PM PM        PM PM PM PM PM PM PM    PM PM PM PM     
  |--3--|  |--3-|    |--3--|  |--3--|  |-3|  |--3--|  |-3|   
  S  S  S  S  S S E  S  S  S  S  S  S  S  E  S  S  S  S  E   
------------------------------------------------------------|
------------------------------------------------------------|
------------------------------------------------------------|
------------------------------------------------------------|
------------------------------------------------------------|
--0--0--0--0---------0--0--0--0--0--0--0-----0--0--0--0-----|


  PM PM PM PM        PM PM PM PM PM PM PM    PM PM PM PM     
  |--3--|  |--3-|    |--3--|  |--3--|  |-3|  |--3--|  |-3|   
  S  S  S  S  S S E  S  S  S  S  S  S  S  E  S  S  S  S  E   
------------------------------------------------------------|
------------------------------------------------------------|
------------------------------------------------------------|
------------------------------------------------------------|
------------------------------------------------------------|
--0--0--0--0---------0--0--0--0--0--0--0-----0--0--0--0-----|


  PM PM PM PM        PM PM PM PM PM PM PM    PM PM PM PM     
  |--3--|  |--3-|    |--3--|  |--3--|  |-3|  |--3--|  |-3|   
  S  S  S  S  S S E  S  S  S  S  S  S  S  E  S  S  S  S  E   
------------------------------------------------------------|
------------------------------------------------------------|
------------------------------------------------------------|
------------------------------------------------------------|
------------------------------------------------------------|
--0--0--0--0---------0--0--0--0--0--0--0-----0--0--0--0-----|


  PM PM PM PM        PM PM PM PM PM PM PM    PM PM PM PM     
  |--3--|  |--3-|    |--3--|  |--3--|  |-3|  |--3--|  |-3|   
  S  S  S  S  S S E  S  S  S  S  S  S  S  E  S  S  S  S  E   
------------------------------------------------------------|
------------------------------------------------------------|
------------------------------------------------------------|
------------------------------------------------------------|
------------------------------------------------------------|
--0--0--0--0---------0--0--0--0--0--0--0-----0--0--0--0-----|


  PM PM PM PM        PM PM PM PM PM PM PM    PM PM PM PM     
  |--3--|  |--3-|    |--3--|  |--3--|  |-3|  |--3--|  |-3|   
  S  S  S  S  S S E  S  S  S  S  S  S  S  E  S  S  S  S  E   
------------------------------------------------------------|
------------------------------------------------------------|
------------------------------------------------------------|
------------------------------------------------------------|
------------------------------------------------------------|
--0--0--0--0---------0--0--0--0--0--0--0-----0--0--0--0-----|


  PM PM PM PM        PM PM PM PM PM PM PM    PM PM PM PM     
  |--3--|  |--3-|    |--3--|  |--3--|  |-3|  |--3--|  |-3|   
  S  S  S  S  S S E  S  S  S  S  S  S  S  E  S  S  S  S  E   
------------------------------------------------------------|
------------------------------------------------------------|
------------------------------------------------------------|
------------------------------------------------------------|
------------------------------------------------------------|
--0--0--0--0---------0--0--0--0--0--0--0-----0--0--0--0-----|


  PM PM PM PM        PM PM PM PM PM PM PM    PM PM PM PM     
  |--3--|  |--3-|    |--3--|  |--3--|  |-3|  |--3--|  |-3|   
  S  S  S  S  S S E  S  S  S  S  S  S  S  E  S  S  S  S  E   
------------------------------------------------------------|
------------------------------------------------------------|
------------------------------------------------------------|
------------------------------------------------------------|
------------------------------------------------------------|
--0--0--0--0---------0--0--0--0--0--0--0-----0--0--0--0-----|


  PM PM PM PM        PM PM PM PM PM PM PM    PM PM PM PM     
  |--3--|  |--3-|    |--3--|  |--3--|  |-3|  |--3--|  |-3|   
  S  S  S  S  S S E  S  S  S  S  S  S  S  E  S  S  S  S  E   
------------------------------------------------------------|
------------------------------------------------------------|
------------------------------------------------------------|
------------------------------------------------------------|
------------------------------------------------------------|
--0--0--0--0---------0--0--0--0--0--0--0-----0--0--0--0-----|


  PM PM PM PM        PM PM PM PM PM PM PM    PM PM PM PM     
  |--3--|  |--3-|    |--3--|  |--3--|  |-3|  |--3--|  |-3|   
  S  S  S  S  S S E  S  S  S  S  S  S  S  E  S  S  S  S  E   
------------------------------------------------------------|
------------------------------------------------------------|
------------------------------------------------------------|
------------------------------------------------------------|
------------------------------------------------------------|
--0--0--0--0---------0--0--0--0--0--0--0-----0--0--0--0-----|


  PM PM PM PM        PM PM PM PM PM PM PM    PM PM PM PM     
  |--3--|  |--3-|    |--3--|  |--3--|  |-3|  |--3--|  |-3|   
  S  S  S  S  S S E  S  S  S  S  S  S  S  E  S  S  S  S  E   
------------------------------------------------------------|
------------------------------------------------------------|
------------------------------------------------------------|
------------------------------------------------------------|
------------------------------------------------------------|
--0--0--0--0---------0--0--0--0--0--0--0-----0--0--0--0-----|


  PM PM PM PM        PM PM PM PM PM PM PM    PM PM PM PM     
  |--3--|  |--3-|    |--3--|  |--3--|  |-3|  |--3--|  |-3|   
  S  S  S  S  S S E  S  S  S  S  S  S  S  E  S  S  S  S  E   
------------------------------------------------------------|
------------------------------------------------------------|
------------------------------------------------------------|
------------------------------------------------------------|
------------------------------------------------------------|
--0--0--0--0---------0--0--0--0--0--0--0-----0--0--0--0-----|


  PM PM PM PM          PM PM                                    
  |--3--|  |--3-| |-3|                                          
  S  S  S  S  S S E  S S  S  E.  E.  E     H        E.  E.  E   
----------------------------------------|-----------2----------|
----------------------------------------|---------------2------|
-------------------------------------4--|--L----------------2--|
---------------------------------5---4--|--L-------------------|
-----------------------------0---5---2--|--L-------------------|
--0--0--0--0-----------0--0--2---3------|----------------------|


  H         Q.     Q       H        E.   E.   E       H        Q.     Q     
------------------------|-------------------------|------------------------|
------------------------|-------------------------|------------------------|
------------------------|--4--------4S---6S---7S--|--11--------9-----------|
--4~--------------------|--4----------------------|------------9------7----|
------------5------5----|--2--------2S---4S---5S--|---9--------7------7----|
------------3------2----|-------------------------|-------------------5----|


                                       PM      PM PM PM PM PM PM  
  H        E.  E.  E     S E.  Q.      S  T  T S  S  S  S  S  S   
----------------------|------------------------------------------|
-----------5---7---8--|--x-7---5~--------------------------------|
--5--------5---5---5--|--x-5---5~--------------------------------|
--5--------5---5---5--|--x-5---5~--------------------------------|
--3-------------------|----------------2--3p-2----2--------------|
----------------------|------------------------5-----5--3--5--3--|


  PM PM                                                          
  S  S  H.           E     W                   W                 
------------------------|-------------------|-------------------|
------------------------|-------------------|-------------------|
------------------------|-------------------|-------------------|
--------2------------L--|--L----------------|--L----------------|
--------2------------L--|--L----------------|--L----------------|
--2--3--0------------L--|--L----------------|--L----------------|


  W                                                                         
-------------------|-------|-------|-------|-------|-------|-------|-------|
-------------------|-------|-------|-------|-------|-------|-------|-------|
-------------------|-------|-------|-------|-------|-------|-------|-------|
--L----------------|-------|-------|-------|-------|-------|-------|-------|
--L----------------|-------|-------|-------|-------|-------|-------|-------|
--L----------------|-------|-------|-------|-------|-------|-------|-------|


-------|-------|-------|-------|-------|-------|-------|
-------|-------|-------|-------|-------|-------|-------|
-------|-------|-------|-------|-------|-------|-------|
-------|-------|-------|-------|-------|-------|-------|
-------|-------|-------|-------|-------|-------|-------|
-------|-------|-------|-------|-------|-------|-------|


       PM PM                        PM PM                 
  Q    S  S  Q.     S S S S    Q    S  S  Q.     S S S S  
----------------------------|----------------------------|
----------------------------|----------------------------|
--4----------4--------------|--4----------4--------------|
--4----------4------4-x-x-4-|--5----------5------5-x-x-5-|
--2----2--2--2------5-x-x-5-|--2----2--2--2------5-x-x-5-|
----------------------------|----------------------------|


                                                       PM PM                 
  Q    S S Q.      Q       Q    Q    Q    Q       Q    S  S  Q.     S S S S  
------------------------|----------------------|----------------------------|
--8----x-x-8S------L----|----------------------|----------------------------|
--9----x-x-9S------L----|----------------------|--4----------4--------------|
--9----x-x-9S------L----|------------2----2----|--4----------4------4-x-x-4-|
--7----x-x-7S------L----|--5----5----0----0----|--2----2--2--2------5-x-x-5-|
------------------------|--2----3--------------|----------------------------|


       PM PM                                                                 
  Q    S  S  Q.     S S S S    Q    S S Q.      Q       Q    Q    Q    Q     
----------------------------|------------------------|----------------------|
----------------------------|--8----x-x-8S------L----|----------------------|
--4----------4--------------|--9----x-x-9S------L----|----------------------|
--5----------5------5-x-x-5-|--9----x-x-9S------L----|------------2----2----|
--2----2--2--2------5-x-x-5-|--7----x-x-7S------L----|--5----5----0----0----|
----------------------------|------------------------|--2----3--------------|


  PM PM PM PM PM PM PM PM PM             PM PM PM PM PM PM PM PM PM     PM      
  S  S  S  S  S  S  S  S  S  Q.     S    S  S  S  S  S  S  S  S  S  E.  S  E.   
--------------------------------------|----------------------------------------|
--------------------------------------|----------------------------------------|
-----------------------------5------L-|-----------------------------2------7---|
--2--2--2--2--2--------------2------L-|--2--2--2--2--2--------------0------5---|
--------------------------------------|-----------------0--0--0--0------0------|
-----------------0--0--0--0-----------|----------------------------------------|


  PM PM PM PM PM PM PM PM PM           
  S  S  S  S  S  S  S  S  S  Q.     S  
--------------------------------------|
--------------------------------------|
-----------------------------4------L-|
--2--2--2--2--2--------------2------L-|
--------------------------------------|
-----------------0--0--0--0-----------|


  T T T T T  T  T T T T T T T  T  T T  T T T T T  T  T T T T T T T  T T T  
--------------------------------------------------------------------------|
--8---7-8-7h-8p-7---8---7-8-7h-8p-7---10---7-8-7h-8p-7---8---7-8----------|
----9-------------9---9-------------9----9-------------9---9-----7------0-|
-------------------------------------------------------------------10-9---|
--------------------------------------------------------------------------|
--------------------------------------------------------------------------|


  PM PM PM PM PM PM PM PM PM             PM PM PM PM PM PM PM PM PM     PM      
  S  S  S  S  S  S  S  S  S  Q.     S    S  S  S  S  S  S  S  S  S  E.  S  E.   
--------------------------------------|----------------------------------------|
--------------------------------------|----------------------------------------|
-----------------------------5------L-|------------------------------------7---|
-----------------------------2------L-|-----------------------------7------5---|
--7--7--7--7--7-----------------------|--7--7--7--7--7--0--0--0--0--5---0------|
-----------------0--0--0--0-----------|----------------------------------------|


  PM PM PM PM PM PM PM PM PM             PM PM PM PM PM PM PM PM PM     PM      
  S  S  S  S  S  S  S  S  S  Q.     S    S  S  S  S  S  S  S  S  S  E.  S  E.   
--------------------------------------|----------------------------------------|
--------------------------------------|----------------------------------------|
--------------------------------------|------------------------------------7---|
-----------------------------9------L-|-----------------------------7------5---|
--7--7--7--7--7--------------7------L-|--7--7--7--7--7--0--0--0--0--5---0------|
-----------------0--0--0--0-----------|----------------------------------------|


  PM PM PM PM PM PM PM PM PM            
  S  S  S  S  S  S  S  S  S   Q.     S  
---------------------------------------|
---------------------------------------|
---------------------------------------|
-----------------------------10------L-|
--7--7--7--7--7---------------7------L-|
-----------------0--0--0--0------------|


  PM PM PM PM PM PM PM PM PM     PM        PM PM PM PM PM PM PM PM PM           
  S  S  S  S  S  S  S  S  S  E.  S  E.     S  S  S  S  S  S  S  S  S  Q.     S  
----------------------------------------|--------------------------------------|
----------------------------------------|--------------------------------------|
------------------------------------7---|--------------------------------------|
-----------------------------7------5---|-----------------------------9------L-|
--7--7--7--7--7--0--0--0--0--5---0------|--7--7--7--7--7--------------7------L-|
----------------------------------------|-----------------0--0--0--0-----------|


  PM PM PM PM PM PM PM PM PM     PM      
  S  S  S  S  S  S  S  S  S  E.  S  E.   
----------------------------------------|
----------------------------------------|
------------------------------------7---|
-----------------------------7------5---|
--7--7--7--7--7--0--0--0--0--5---0------|
----------------------------------------|


  PM PM PM PM PM PM PM PM PM              PM PM PM PM PM PM PM PM             
  S  S  S  S  S  S  S  S  S   Q.     S    S  S  S  S  S  S  S  S  E.  E.  E   
---------------------------------------|-------------------------------------|
---------------------------------------|-------------------------------------|
---------------------------------------|----------------------------------4--|
-----------------------------10------L-|------------------------------5---4--|
--7--7--7--7--7---------------7------L-|--7--7--7--7--7-----------0---5---2--|
-----------------0--0--0--0------------|-----------------0--0--0--2---3------|


        T        T        T        T        T        T        T        T   
  |--6--|  |--6--|  |--6--|  |--6--|  |--6--|  |--6--|  |--6--|  |--6--|   
  S  S  S  S  S  S  S  S  S  S  S  S  S  S  S  S  S  S  S  S  S  S  S  S   
--------------------------------------------------------------------------|
--0h-5-12p-0h-5-12p-0h-5-12p-0h-5-12p-0h-5-12p-0h-5-12p-0h-5-12p-0h-5-12h-|
--------------------------------------------------------------------------|
--------------------------------------------------------------------------|
--------------------------------------------------------------------------|
--------------------------------------------------------------------------|


        T        T        T        T                                       
  |--6--|  |--6--|  |--3--|  |--3--|                                       
  S  S  S  S  S  S  S  S  S  S  S  S Q.     Q       H        E  S E  S E   
-------------------------------------------------|------------------------|
--0h-5-12p-0h-5-12p-0h-5-12p-0h-5-12-------------|------------------------|
-------------------------------------------------|--4---------------------|
-------------------------------------------------|--4---------------------|
-------------------------------------5------5----|--2--------2----4----5--|
-------------------------------------3------2----|--------------2----2----|


  H         Q.     Q       H        S S S S S S S S  
------------------------|---------------------------|
------------------------|-----------5-----7-----8---|
------------9-----------|--5----------5-----5-----5-|
------------9------7----|--5------------5-----5-----|
--L~--------7------7----|--3------------------------|
-------------------5----|---------------------------|


                PM PM PM PM PM PM PM PM PM PM PM                               
  S S S S Q     S  T  T  S  S  S  S  S  S  S  S     W                H         
-------------------------------------------------|----------------------------|
----7-----5~-------------------------------------|----------------------------|
------5---5~-------------------------------------|----------------------------|
--5-----5----------------------------------------|--2----------------L--------|
----------------2--3--2-----2--------------------|--2----------------L--------|
-------------------------5-----5--3--5--3--2--3--|--0----------------L--------|


  S S S E  S S S S E.     E  E  E  E  S S E     E  E  E  E  E  E  S S  
-----------------------|---------------------|------------------------|
-----------------------|---------------------|------------------------|
--7--------------------|--------6-----4-4----|--------4-----2---------|
--5---9------7---7-----|-----4-----4------4--|-----2-----2-----2------|
------7------5---4-----|--2------------------|--0-----------------0-0-|
-----------------------|---------------------|------------------------|


  E  E  E  E  S S E     E  E  E  S  S E  E  S S    E  E  E  E  S S E   
---------------------|--------------------------|---------------------|
---------------------|--------------------------|---------------------|
--------6-----4-4----|--------------------------|--------6-----4-4----|
-----4-----4------4--|--------7-------9---------|-----4-----4------4--|
--2------------------|-----5-----5S-7----7--0-0-|--2------------------|
---------------------|--3-----------------------|---------------------|


  E  E  E  E  E  E  S S    E  E  E  E  S S E     E  E  E  S  S E  E  S S  
------------------------|---------------------|--------------------------|
------------------------|---------------------|--------------------------|
--------4-----2---------|--------6-----4-4----|--------------------------|
-----2-----2-----2------|-----4-----4------4--|--------7-------9---------|
--0-----------------0-0-|--2------------------|-----5-----5S-7----7--0-0-|
------------------------|---------------------|--3-----------------------|


   E   E   E   E   S  S  E   E   E      S  S  E   E   E   E   
------------------------------------|------------------------|
------------------------------------|------------------------|
----------18------16-16-------------|--16-16-----14----------|
------16------16--------16------14--|--------14------14------|
--14------------------------12------|--------------------12--|
------------------------------------|------------------------|


   E   E   E   E   S  S  E   E   E      E   S   S  E   E   E   
------------------------------------|-------------------------|
------------------------------------|-------------------------|
----------18------16-16-------------|--14---------16----------|
------16------16--------16------12--|------12S-14-----14------|
--14------------------------10------|---------------------12--|
------------------------------------|-------------------------|


   E   E   E   E   S  S  E   E   E      S  S  E   E   E   E   
------------------------------------|------------------------|
------------------------------------|------------------------|
----------18------16-16-------------|--16-16-----14----------|
------16------16--------16------14--|--------14------14------|
--14------------------------12------|--------------------12--|
------------------------------------|------------------------|


   E   E   E   E   S  S  E   E   E      E   S   S  E   E   E   
------------------------------------|-------------------------|
------------------------------------|-------------------------|
----------18------16-16-------------|--14---------16----------|
------16------16--------16------12--|------12S-14-----14------|
--14------------------------10------|---------------------12--|
------------------------------------|-------------------------|


  |--6-| |--6-| |--6--| |--6--| |--6--| |--6--|  
  S S  S S S  S S  S  S S  S  S S  S  S S  S  S  
------------------------------------------------|
------------------------------------------------|
------------------------------------------------|
----------------------------------------9-11-12-|
---------7-9-10---------9-10-12-9-10-12---------|
--7-9-10--------9-10-12-------------------------|


  |--3--| |--3--|  |--3--|  |--3--|  |--3--|  |--3--|  |--3--|  
  S  S  S S  S  S  S  S  S  S  S  S  S  S  S  S  S  S  S  S  S  
---------------------------------------------------------------|
---------------------------------------------12-14-15-12-14-15-|
----------9-11-12----------11-12-14-11-12-14-------------------|
--9-11-12---------11-12-14-------------------------------------|
---------------------------------------------------------------|
---------------------------------------------------------------|


   |--6--|  |--6--|  |--6--|  |--6--|  |--6--|  |--6--|  
   S  S  S  S  S  S  S  S  S  S  S  S  S  S  S  S  S  S  
--12-14-15----------14-15-17-17-15-14-------------------|
-----------14-15-17-------------------17-15-14----------|
-----------------------------------------------16-14-12-|
--------------------------------------------------------|
--------------------------------------------------------|
--------------------------------------------------------|


   |--3--|  |--3--|  |--3--|  |--3--|  |--3--|  |--3--|  |--3--|  
   S  S  S  S  S  S  S  S  S  S  S  S  S  S  S  S  S  S  S  S  S  
-----------------------------------------------------------------|
-----------------------------------------------------------------|
-----------------------------------------------------------------|
--16-14-12-------------------------------------------------------|
-----------16-14-12-------------------14-16-17----------16-17-19-|
--------------------15-14-12-14-15-17----------15-17-19----------|


   |--6--|  |--6--|  |--6--|  |--6--|  |--6--|  |--6--|  
   S  S  S  S  S  S  S  S  S  S  S  S  S  S  S  S  S  S  
--------------------------------------------------------|
--------------------------------------------------------|
-----------------------------------------------14-16-18-|
-----------14-16-17----------16-17-19-14-16-17----------|
--14-16-17----------16-17-19----------------------------|
--------------------------------------------------------|


   |--3--|  |--3--|  |--3--|  |--3--|  |--3--|  |--3--|  |--3--|  
   S  S  S  S  S  S  S  S  S  S  S  S  S  S  S  S  S  S  S  S  S  
-----------------------------------------------------------------|
-----------------------------------------------------------------|
-----------16-18-19----------18-19-21----------------------------|
--16-17-19----------17-19-21-------------------17-19-21----------|
--------------------------------------------------------17-19-21-|
--------------------------------------17-19-21-------------------|


   |--6--|  |--6--|  |--6--|  |--6--|  |--6--|  |--6--|   
   S  S  S  S  S  S  S  S  S  S  S  S  S  S  S  S  S  S   
-----------------------------------------------19-22-21b-|
--------------------------------------19-20-22-----------|
--18-19-21----------18-19-21-18-19-21--------------------|
-----------17-19-21--------------------------------------|
---------------------------------------------------------|
---------------------------------------------------------|


         \0                                                           
  E  E   E   E   Q     E     E  E  E  E  S S E     E  E  E  E  E  E   
--L--L---L------22b----L--|---------------------|-----------2--------|
------------19------------|---------------------|--------------2-----|
--------------------------|--------6-----4-4----|--------4--------4--|
--------------------------|-----4-----4------4--|-----2--------------|
--------------------------|--2------------------|--0-----------------|
--------------------------|---------------------|--------------------|


  E  E  E  E  E  E     E  E  E  E  E  E     E  E  E  E  E  E   
--------------------|--------------------|--------------------|
--------------------|--------------------|--------------------|
--------2--------2--|-----------0--------|-----------2--------|
-----0--------0-----|--------4-----4-----|--------6-----------|
--2-----------------|-----2-----------2--|-----4--------4--0--|
-----------3--------|--0-----------------|--2-----------------|


  E  E  H.              W                   E   E  H.            
---------------------|-------------------|----------------------|
---------------------|-------------------|-----10--L------------|
--5--4--L------------|--L----------------|------9--L------------|
--5--4--L------------|--L----------------|------7--L------------|
--3--2--L------------|--L----------------|--0-------------------|
---------------------|-------------------|----------------------|


  W                    E  E  H.              W                 
-------------------|----------------------|-------------------|
--L----------------|--10--8--L------------|--L----------------|
--L----------------|---9--7--L------------|--L----------------|
--L----------------|---7--5--L------------|--L----------------|
-------------------|----------------------|-------------------|
-------------------|----------------------|-------------------|


                         |----3----|                                         
  E  E  H        Q       Q    Q    Q    Q     Q       E  E  H.           E   
----------------------|-------1--------------------|------------------------|
----------------------|--1---------1---------------|------------------------|
-----------------4----|-----------------4~----L----|------------------------|
-----3--L-------------|----------------------------|-----4--L------------L--|
--2--3--L-------------|----------------------------|--2--4--L------------L--|
--0--1--L-------------|----------------------------|--0--2--L------------L--|


  H.           E  E     Q    E  E   E.   E.   E      W                  
---------------------|--0----0-----12-------------|--------------------|
---------------------|--0----0----------12--------|--------------------|
---------------------|--3----3---------------15~--|--L~----------------|
--L------------L-----|--4----4--------------------|--------------------|
--L------------L-----|--4----4--------------------|--------------------|
--L------------L--0--|--2----2--------------------|--------------------|


  E  S S S S S S H                               E  E  H.            
-----0-0-0-0-0------------|-------------------|-----0--L------------|
-----0-0-0-0-0------------|-------------------|-----0--L------------|
--L--3-3-3-3-3------------|-------------------|-----3--L------------|
-----4-4-4-4-4------------|-------------------|-----4--L------------|
-----4-4-4-4-4------------|-------------------|-----4--L------------|
-----2-2-2-2-2------------|-------------------|--0--2--L------------|


  H.           E  E      H.            S  S S  S  
--L------------L--7--|---9-----------------------|
--L------------L--7--|---9-----------------------|
--L------------L--9--|--11------------11-11-x-11-|
--L------------L--9--|--11------------11-11-x-11-|
--L------------L--7--|---9-------------9--9-x--9-|
--L------------L-----|---------------------------|


   S S  S  S  S  S S  S  S S  S  S E   E     H        E  E  Q     
---9-x--9--x--x--9-x--9--x-x--9--x-7---9--|----------------------|
---9-x--9--x--x--9-x--9--x-x--9--x-7---9--|----------------------|
--11-x-11--x--x-11-x-11--x-x-11--x-9--11--|----------------------|
--11-x-11--x--x-11-x-11--x-x-11--x-9--11--|--------------4-------|
---9-x--9--x--x--9-x--9--x-x--9--x-7---9--|--------------4-------|
------------------------------------------|--------------2-------|


  E  S S E  Q.     E  E     E  Q.     S S E  Q       Q    Q    E  E  Q     
-------------------------|------------------------|-----------------------|
-------------------------|------------------------|-----------------------|
-------------------------|------------------------|-----------------------|
-----4-4-4------------4--|--5---------5-5-5-------|---------------5-------|
-----4-4-4------------4--|--5---------5-5-5-------|---------------5-------|
-----2-2-2------------2--|--3---------3-3-3-------|---------------3-------|


  E  Q    E  H           Q    E  Q.     E  E     E  Q.     E.  E.  E    
----------------------|-----------------------|--0--L------0-----------|
----------------------|-----------------------|--0--L------L---0-------|
----------------------|-----------------------|--3--L------L-------3~--|
--7-------7-----------|-------9---------------|--4--L------L-----------|
--7-------7-----------|-------9---------------|--4--L------L-----------|
--5-------5-----------|-------7------------0--|--2--L------L-----------|


  E.  H.           S     S E   S E   S S  S S  T  T  T  T  T  T  T  T  S  S  
---------------------|--12--------------------12-14-12-11-------------------|
---------------------|--------12----11--------------------14-13-12-11-------|
--L---L--------------|-------------------11---------------------------13-12-|
---------------------|------------------------------------------------------|
---------------------|------------------------------------------------------|
---------------------|------------------------------------------------------|


   S E  S E  S S  S S T  T T T  T  T T T  S  S  
-----------------------------------------------|
-----------------------------------------------|
--11----9----8--------9-11-9-8-----------------|
-----------------11------------11-10-9-8-------|
-----------------------------------------11-10-|
-----------------------------------------------|


                       |---3--|                                
  E.  E.  E   E.   E.  S   S  S     E.   E.    H         S  S  
---------------------------------|----------------------------|
---------------------------------|----------------------------|
---------------------------------|------11~---11~--------L-21-|
-------------13---11---9h-11p-9h-|--8-------------------------|
--9---7---6----------------------|----------------------------|
---------------------------------|----------------------------|


   E.   E.   E   E.   E.   E      Q.        E  Q.      E   
-------21------------19-------|---------------------------|
--19--------19--17--------17--|--16br---------------------|
------------------------------|------------16--8b---------|
------------------------------|------------------------9--|
------------------------------|---------------------------|
------------------------------|---------------------------|


  E.   S E  S  S S  S S  S S  S E      S  S  S  S S  S  S  S  H          
-----------------9-14------9-12----|--------------9---------------------|
-----------------------------------|--10-11-12-13---10-11---------------|
------11----9-11------9-11---------|----------------------11------------|
--8--------------------------------|-------------------------11~--------|
-----------------------------------|------------------------------------|
-----------------------------------|------------------------------------|


   S S  S  S  S S  S  S S S  S S S  S S S  
------------------------------------------|
--12-9-10-11-10-9-------------------------|
------------------11-10-9-8----8-9-11-9-8-|
----------------------------11------------|
------------------------------------------|
------------------------------------------|


   S  S S S  S S S  S S S  S  S S S  S  S  
------------------------------------------|
------------------------------------------|
------------------------------------------|
--11-10-9-8----8-9-11-9-8-----------------|
------------11------------11-10-9-8-11-12-|
------------------------------------------|


   S  S S  S  S S S S S S S S S S S S    S S H         Q.      
--------------------------------------|-----------------------|
--------------------------------------|-----------------------|
-----11---------9-------6-------4-----|----3------------------|
--------------------------------------|-----------------------|
--13----9-10-11---6-7-8---4-5-6---2-3-|--4---4~--------L------|
--------------------------------------|-----------------------|


  S S S S Q      S S S  S S S S  S    S T T S S S S S S S T T S S S S S S  
----7-8-9-9b~----9-8-7----7-8-7----|----8-7-5-----5-6---------------------|
--9--------------------10-------10-|--7-------7-5-----7-------------------|
-----------------------------------|--------------------6-5-4-2-----2-3---|
-----------------------------------|----------------------------4-2-----4-|
-----------------------------------|--------------------------------------|
-----------------------------------|--------------------------------------|


                                tr                                         
  S S S S S S S H          S    W                      E  E  H.            
-----------------------------|----------------------|-----0--L------------|
-----------------------------|----------------------|-----0--L------------|
-----------------------------|----------------------|-----3--L------------|
--2-4-2---------4br--------L-|--2(4)----------------|-----4--L------------|
--------4-3-2-0--------------|----------------------|--2--4--L------------|
-----------------------------|----------------------|--0--2--L------------|


  W                   E  E  H.              H.           H         
--L----------------|-----0--L------------|--L------------L--------|
--L----------------|-----0--L------------|--L------------L--------|
--L----------------|-----3--L------------|--L------------L--------|
--L----------------|-----4--L------------|--L------------L--------|
--L----------------|--2--4--L------------|--L------------L--------|
--L----------------|--0--2--L------------|--L------------L--------|


  S S S E  S E  E   E     S S S E  S E  E   E     S S S E  S E  E   E   
-----------------------|-----------------------|-----------------------|
-----------------------|-----------------------|-----------------------|
-----------------------|-----------------------|-----------------------|
--------9--------------|--------9--------------|--------9--------------|
------7---------8--10--|------7---------8--10--|------7---------8--10--|
--0-0------0-8---------|--0-0------0-8---------|--0-0------0-8---------|


  S S S E  S E  E   E     H.              H.              H.            
-----------------------|---------------|---------------|---------------|
-----------------------|---------------|---------------|---------------|
-----------------------|---------------|---------------|---------------|
--------9--------------|---------------|---------------|---------------|
------7---------8--10--|---------------|---------------|---------------|
--0-0------0-8---------|---------------|---------------|---------------|


  H.              Q.       Q.          Q.       Q.          Q.       Q.       
---------------|----------12~------|-----------10~------|--------------------|
---------------|-------------------|--10~---------------|--12~---------------|
---------------|--9~---------------|--------------------|-----------12~------|
---------------|-------------------|--------------------|--------------------|
---------------|-------------------|--------------------|--------------------|
---------------|-------------------|--------------------|--------------------|


   Q.       Q.          Q.       Q.          Q.       Q.       
--------------------|--------------------|--18~---------------|
--10~---------------|-----------15~------|--------------------|
--------------------|--------------------|-----------16~------|
-----------12~------|--14~---------------|--------------------|
--------------------|--------------------|--------------------|
--------------------|--------------------|--------------------|


   Q.      Q.          Q.      Q.          S  S  S  E   S  S S  S  S  E   
-------------------|-------------------|-----------------------17-15-16--|
-------------------|-------------------|-----17----17--------------------|
--13~------9~------|--11~--------------|---------------16-14-------------|
-------------------|-----------8~------|--14----14-----------------------|
-------------------|-------------------|---------------------------------|
-------------------|-------------------|---------------------------------|


   S  S S  S  S  S  E   S  S S  S    S  E   S  S S  E   S  E    S  
-------------------------------17-|----19--16------17--16-16S--22-|
--17-15------17----17-------------|-----------17------------------|
-----------------------16-14------|-------------------------------|
----------14----14----------------|-------------------------------|
----------------------------------|-------------------------------|
----------------------------------|-------------------------------|


  S  S  S  E    S S S S S S S    S S E   E    S S  E   E      E   H         E   
------------------------------|------9--10S--16-----------|--------------------|
----------17S--22-------------|---------------------------|------17~--------L--|
----13-14---------------------|---------------------------|--16----------------|
--------------------7-8-9---7-|--L-6--------------14--18--|--------------------|
--------------------------7---|---------------------------|--------------------|
------------------------------|---------------------------|--------------------|


  PM PM                     PM PM                     PM PM                   
  S  S  S E  S E  E   E     S  S  S E  S E  E   E     S  S  S E  S E  E   E   
-------------------------|-------------------------|-------------------------|
-------------------------|-------------------------|-------------------------|
-------------------------|-------------------------|-------------------------|
----------9--------------|----------9--------------|----------9--------------|
--------7---------8--10--|--------7---------8--10--|--------7---------8--10--|
--0--0-------0-8---------|--0--0-------0-8---------|--0--0-------0-8---------|


  PM PM PM   PM PM PM PM PM   PM PM           
  S  S  S  S S  S  S  S  S  S S  S  E  E  E   
---------------------------------------------|
---------------------------------------------|
---------------------------------------------|
---------------------------------------------|
-----------7----------------7----------7--8--|
--0--0--0----0--0--0--0--0----0--0--7--------|


  PM PM PM   PM PM PM PM PM   PM PM PM        
  S  S  S  S S  S  S  S  S  S S  S  E  E  E   
---------------------------------------------|
---------------------------------------------|
---------------------------------------------|
---------------------------------------------|
-----------7----------------7----------7--8--|
--0--0--0----0--0--0--0--0----0--0--7--------|


  PM PM PM   PM PM PM PM PM   PM PM           
  S  S  S  S S  S  S  S  S  S S  S  E  E  E   
---------------------------------------------|
---------------------------------------------|
---------------------------------------------|
---------------------------------------------|
-----------7----------------7----------7--8--|
--0--0--0----0--0--0--0--0----0--0--7--------|


  PM PM PM   PM PM PM PM PM   PM PM                                         
  S  S  S  S S  S  S  S  S  S S  S  E  E  E     S S S S S S S S S S S S E   
---------------------------------------------|-----------------------------|
---------------------------------------------|-----------------------------|
---------------------------------------------|--------6-3-------------7----|
---------------------------------------------|------5-----4---------6------|
-----------7----------------7----------7--8--|----4---------5-----5--------|
--0--0--0----0--0--0--0--0----0--0--7--------|--3-------------6-4----------|


  S S S  S S S S  S S S  S  S E   E  E   
----------------------------------------|
----------------------------------------|
--------10-7---------------11----13-----|
------9------8----------10-------12-----|
----8----------9------9----------11-----|
--7--------------10-8------------10-----|


   S  S  S  S  S  S  S  S  S  S  S  S E      S  S  S  S  S  S E   
-----------------------------------------|-----------------------|
-----------------------------------------|-----------------------|
-----------14-11-------------------15----|-----------------------|
--------13-------12-------------14-------|--11-10----------------|
-----12-------------13-------13----------|--------13-12-11-10----|
--11-------------------14-12-------------|-----------------------|


                             PM PM PM PM PM PM PM PM PM PM PM PM    
   S E   S  S E   S  S E     S  S  S  S  S  S  S  S  S  S  S  S  S  
--11----------------------|----------------------------------------|
--------------------------|----------------------------------------|
-----------------13-12----|----------------------------------------|
--------12-12-------------|--------------------0-------------------|
--------------------------|--0--------------------4--3--2--1--0----|
--------------------------|-----4--3--2--1--0----------------------|


  PM PM PM PM PM PM PM PM PM PM PM PM     
  S  S  S  S  S  S  S  S  S  S  S  S  E   
-----------------------------------------|
-----------------------------------------|
-----------------------------------------|
--------------------0--------------------|
--0--------------------4--3--2--1--0-----|
-----4--3--2--1--0-----------------------|


  PM PM PM PM PM PM PM PM PM PM PM PM    
  S  S  S  S  S  S  S  S  S  S  S  S  S  
----------------------------------------|
----------------------------------------|
----------------------------------------|
--------------------0-------------------|
--0--------------------4--3--2--1--0----|
-----4--3--2--1--0----------------------|


  PM PM PM PM PM PM PM PM PM PM PM PM                          
  S  S  S  S  S  S  S  S  S  S  S  S  E     E  E  E  E  E  E   
-----------------------------------------|--------------------|
-----------------------------------------|--------------------|
-----------------------------------------|--------------------|
--------------------0--------------------|-----------4--------|
--0--------------------4--3--2--1--0-----|--------------2--3--|
-----4--3--2--1--0-----------------------|--3--2--3-----------|


  E  E  E  E  E  E     E  E  E  E  E  E     E  E  E  E  E  E   
--------------------|--------------------|--------------------|
--------------------|--------------------|--------------------|
--------------------|--------------------|--------------------|
--5-----4-----5-----|-----------4--------|--5-----4-----4-----|
-----3-----2-----2--|--------------2--3--|-----3-----2-----2--|
--------------------|--3--2--3-----------|--------------------|


  E  E  E  E  E  E     E  E  E  E  E  E     E  E  E  E  E  E  E  E  E   
--------------------|--------------------|-----------------------------|
--------------------|--------------------|-----------------------------|
--------------------|--------------------|-----------------------------|
-----------4--------|--5-----4-----4-----|-----------4--------5--------|
--------------2--3--|-----3-----2-----2--|--------------2--3-----3--2--|
--3--2--3-----------|--------------------|--3--2--3--------------------|


  E  E  E  E  E     E  E  E  E  E  E  E     E  E  E  E  E   
-----------------|-----------------------|-----------------|
-----------------|-----------------------|-----------------|
-----------------|-----------------------|-----------------|
--5-----4--------|--4-----2--------------|--5-----4--------|
-----3-----2-----|-----------3--5--2--2--|-----3-----2-----|
--------------5--|-----5-----------------|--------------5--|


  E  E  E  E  E  E  E     E  E  E  E  E     E  E  E  E  E  E  E   
-----------------------|-----------------|-----------------------|
-----------------------|-----------------|-----------------------|
-----------------------|--2--------------|-----------------------|
--4-----2--------------|--------5--2-----|--4-----------2--------|
-----------3--5--2--3--|-----3--------5--|-----5--2--3-----5--3--|
-----5-----------------|-----------------|-----------------------|


  E  E  E  E  E     E  E  E  E  E  E  E     E  E  E  E  E   
-----------------|-----------------------|-----------------|
-----------------|-----------------------|-----------------|
--2--------------|-----------------------|-----------------|
--------5--2-----|--4-----------2--------|--4-----5--------|
-----3--------5--|-----5--2--3-----5-----|-----------------|
-----------------|--------------------2--|-----2-----2--3--|


  E  E  E  E  E  E  E     E  E  E  E  E     E  E  E  E  E  E  E   
-----------------------|-----------------|-----------------------|
-----------------------|-----------------|-----------------------|
-----------------------|-----------------|-----------------------|
--5-----7--------4-----|--5-----7--------|--4-----5--------5-----|
-----------------------|--------------2--|-----2-----2--3-----3--|
-----3-----3--5-----5--|-----5-----5-----|-----------------------|


  E  E  E  E  E     E  E  E  E  E  E  E     E  E  E  E  E   
-----------------|-----------------------|-----------------|
-----------------|-----------------------|-----------------|
-----------------|-----------------------|-----------------|
--5-----7--------|--5-----7--------7-----|--9--------9-----|
-----3-----3--5--|-----5-----5--7-----7--|-----7--8-----8--|
-----------------|-----------------------|-----------------|


   E  E   E  E  E  E  E     E   E  E   E   E   E      E   E  E   E   E  E   
-------------------------|------------------------|------------------------|
-------------------------|------------------------|------------------------|
-------------------9-----|-----12-----11----------|--11------9-------------|
--10-----12--------------|--9------9------10------|-------------10--12--9--|
------8------8--9-----9--|--------------------12--|------12----------------|
-------------------------|------------------------|------------------------|


  E   E  E   E   E   E      E   E  E   E   E  E      E   E   E   E  E   E   
------------------------|------------------------|-------------------------|
------------------------|------------------------|------10-----------------|
-----12-----11----------|--11------9-------------|--------------12--9------|
--9------9------10------|-------------10--12--9--|--10------10---------12--|
--------------------12--|------12----------------|-------------------------|
------------------------|------------------------|-------------------------|


   E   E  E   E  E   E      E   E   E   E  E   E      E   E  E   E  E   E   
------------------------|-------------------------|------------------------|
------------------------|------10-----------------|------------------------|
--11-------------9------|--------------12--9------|--11-------------9------|
------12--9--10-----12--|--10------10---------12--|------12--9--10-----12--|
------------------------|-------------------------|------------------------|
------------------------|-------------------------|------------------------|


   E   E   E   E   E   E      E   E   E   E   E   
------15------14----------|--14------12----------|
--12------12------15------|--------------13------|
----------------------14--|------14----------14--|
--------------------------|----------------------|
--------------------------|----------------------|
--------------------------|----------------------|


   E   E   E   E   E   E   E      E   E   E   E   E   
--14------12------------------|--15------14----------|
--------------13--15--12--12--|------12------15--13--|
------14----------------------|----------------------|
------------------------------|----------------------|
------------------------------|----------------------|
------------------------------|----------------------|


   E   E   E   E   E   E   E      E   E   E   E   E      E   E   E   E   E   
--17------15------14----------|--19------17----------|--17------------------|
------13------17------15--15--|------15------19--17--|----------20--17--17--|
------------------------------|----------------------|------17--------------|
------------------------------|----------------------|----------------------|
------------------------------|----------------------|----------------------|
------------------------------|----------------------|----------------------|


   E   E   E   E   E   E   E   Q        E  E  E  S S E     E  E  E  E  E   
--19------------------22------22b----|--L--------L---L--|--L-----------L--|
------20--22--19--19------19---------|------------------|-----------------|
-------------------------------------|--0--2--0---------|-----------0--2--|
-------------------------------------|-----------4-4-2--|--0--------------|
-------------------------------------|------------------|-----3--2--------|
-------------------------------------|------------------|-----------------|


  E  S S E  E  E     E  E  E  E  E     E  E  E  Q       E  E  E  Q           
---------------L--|-----------------|----------------|----------------|-----|
------------------|-----------------|----------------|----------------|-----|
--0---------------|-----------------|--7-------------|----------------|-----|
-----4-4-2--0-----|-----------------|--5-----9-------|--7-----7-------|-----|
---------------3--|--2--0-----------|--------7-------|--5-----4-------|-----|
------------------|--------3--2--0--|----------------|----------------|-----|


-----|-----|-----|-----|-----|----|----|----|----|----|----|----|----|
-----|-----|-----|-----|-----|----|----|----|----|----|----|----|----|
-----|-----|-----|-----|-----|----|----|----|----|----|----|----|----|
-----|-----|-----|-----|-----|----|----|----|----|----|----|----|----|
-----|-----|-----|-----|-----|----|----|----|----|----|----|----|----|
-----|-----|-----|-----|-----|----|----|----|----|----|----|----|----|


  Q    S S Q.     Q       Q    S S Q.     Q       Q    S S Q.     Q      
-----------------------|-----------------------|------------------------|
-----------------------|-----------------------|--8----x-x-8------8S----|
--4--------4------4----|--4--------4------4----|--9----x-x-9------9S----|
--4--------4------4----|--5--------5------5----|--9----x-x-9------9S----|
--2----2-2-2------2----|--2----2-2-2------2----|--7----x-x-7------7S----|
-----------------------|-----------------------|------------------------|


  Q    Q    Q    Q       Q    S S Q.     Q       Q    S S Q.     Q     
----------------------|-----------------------|-----------------------|
----------------------|-----------------------|-----------------------|
----------------------|--4--------4------4----|--4--------4------4----|
------------2----2----|--4--------4------4----|--5--------5------5----|
--5----5----0----0----|--2----2-2-2------2
Добавлено: 27.02.2012
Другие материалы по этой песне:
  • Аккорды и текст

Страница создана 27.02.2012
http://primanota.ru/dream-theater/metropolis-chords.htm
Привет, Гость.
Предлагаем пройти революционный курс по гитаре.
Подарок от PrimaNota.Ru, забирай!