PrimaNota.ru - самый крупный в мире бесплатный архив песенных текстов, аккордов, табулатур и нот


Dream Theater - Metropolis Part 1 The Miracle And The Sleeper - таба, бас-таба, видео

Регистрация Запомнить меня
Войти через:  Facebook Google Twitter Vk Yandex Mail.ru

Dream Theater - Metropolis Part 1 The Miracle And The Sleeper - таба, бас-таба, видео

Печатать
Просмотров: 101
As recorded by Dream Theater

Transcribed by John Grivas
        

Words and Music by Dream Theater
Arranged by Dream Theater

Gtr I (E A D G B E) - 'Distorted Guitar I'
Gtr II (E A D G B E) - 'Distorted Guitar II'
Gtr III (E A D G B E) - 'Clean Guitar'

 Intro
  Q=106
 4/4
  Gtr I
  W          W          W          W
|----------|----------|----------|------|
|----------|----------|----------|------|
|----------|----------|----------|------|
|----------|----------|----------|------|
|----------|----------|----------|------|
|----------|----------|----------|------|


                                   PM------|
  W          W          W          S S S S E E  H
|----------|----------|----------|-------------------|
|----------|----------|----------|-------------------|
|----------|----------|----------|-------------------|
|----------|----------|----------|-------------------|
|----------|----------|----------|-------------------|
|----------|----------|----------|-0-0-0-0-0---------|


             PM------|        PM               PM------|        PM|
  W          S S S S E E  Q   E E   W          S S S S E E  Q   S S E
|----------|----------------------|----------|------------------------|
|----------|----------------------|----------|------------------------|
|----------|----------------------|----------|------------------------|
|----------|----------------------|----------|------------------------|
|----------|----------------------|----------|------------------------|
|----------|-0-0-0-0-0--------0---|----------|-0-0-0-0-0--------0-0---|


              PM------|        PM               PM------|
  W           S S S S E E  Q   E E   W          S S S S E E  Q   Q
|-----------|----------------------|----------|---------------------|
|-----------|----------------------|----------|---------------------|
|-----------|----------------------|----------|---------------------|
|-----------|----------------------|----------|---------------------|
|-----------|----------------------|----------|---------------------|
|-----------|-0-0-0-0-0--------0---|----------|-0-0-0-0-0-----------|


       PM|                              PM|                        ~
  Q.   S S E. E. E   +W           +Q.   S S E. E. E   +H     E. E. E
|------------------|------------|-------------------|--------3--------|
|------------------|------------|-------------------|-----------3-----|
|------------------|------------|-----------------5-|-(5)----------5--|
|----------4--5--2-|-(2)--------|-(2)-------4--5--5-|-(5)-------------|
|----------4--5--2-|-(2)--------|-(2)-------4--5--3-|-(3)-------------|
|------0-0-2--3--0-|-(0)--------|-(0)---0-0-2--3----|-----------------|
|
| Gtr II
|      PM|                              PM|
| Q.   S S E. E. E   +W           +Q.   S S E. E. E   +W
|------------------|------------|-------------------|-----------------|
|------------------|------------|-------------------|-----------------|
|------------------|------------|-----------------5-|-(5)-------------|
|----------4--5--2-|-(2)--------|-(2)-------4--5--5-|-(5)-------------|
|----------4--5--2-|-(2)--------|-(2)-------4--5--3-|-(3)-------------|
|------0-0-2--3--0-|-(0)--------|-(0)---0-0-2--3----|-----------------|


                                  \7           \7
   ~~~  PM|
  +Q.   S S E. E. E   +H     +E   Q.      +E   Q.   E. E. E   +H     E.E.E
|-------------------|------------------|--------------------|-----------------|
|-------------------|------------------|--------------------|-----------------|
|-(5)---------------|------------<4>---|-(<4>)-0----------5-|-(5)----5S7S9S===|
|-----------4--5--2-|-(2)----(2)-------|------------4--5--5-|-(5)-------------|
|-----------4--5--2-|-(2)----(2)-------|------------4--5--3-|-(3)----3S5S7S===|
|-------0-0-2--3--0-|-(0)----(0)-------|------------2--3----|-----------------|
|
|       PM|
| +Q.   S S E. E. E   +W                  +H        E. E. E   +W
|-------------------|------------------|--------------------|-----------------|
|-------------------|------------------|--------------------|-----------------|
|-(5)---------------|------------------|------------------5-|-(5)-------------|
|-(5)-------4--5--2-|-(2)--------------|--(2)-------4--5--5-|-(5)-------------|
|-(3)-------4--5--2-|-(2)--------------|--(2)-------4--5--3-|-(3)-------------|
|-------0-0-2--3--0-|-(0)--------------|--(0)-------2--3----|-----------------|


   E   S S  S S  S S E. E. E
|----------------------------|
|----------------------------|
|-11-------------------------|
|--------------------4--5--2-|
|--9h=10p9h10p9h10p9-4--5--2-|
|--------------------2--3--0-|
|
| +H                 E. E. E
|----------------------------|
|----------------------------|
|-(5)------------------------|
|-(5)----------------4--5--2-|
|-(3)----------------4--5--2-|
|--------------------2--3--0-|


      PM|   PM|     PM|   PM|         PM|   PM|
  +E  S S E S S S S S S E S S    S  S S S E S S E. E. E
|-----------------------------|-------------------------|
|-----------------------------|-------------------------|
|-----------------------------|-----------------------5-|
|-(2)-------------------------|-----------------4--5--5-|
|-(2)-----7-------7-----7-----|-----7-----7-----4--5--3-|
|-(0)-0-0---0-0-----0-0---0-0-|-------0-0---0-0-2--3----|
|
| +W                            +H              E. E. E
|-----------------------------|-------------------------|
|-----------------------------|-------------------------|
|-----------------------------|-----------------------5-|
|-(2)-------------------------|-(2)-------------4--5--5-|
|-(2)-------------------------|-(2)-------------4--5--3-|
|-(0)-------------------------|-(0)-------------2--3----|


        \0.5/   \0.5/  \0.5/     \0.5/  \0.5/  \0.5/
  +Q    Q       Q      Q         Q      Q      E.    E. E
|-----------------------------|---------------------------|
|-----------------------------|---------------------------|
|-(5)--12s=====11s=====9s=====|==7s=====5s=====4-----2----|
|-(5)-------------------------|----------------------2--2-|
|-(3)--10s======9s=====7s=====|==5s=====3s=====2-----0--2-|
|-----------------------------|-------------------------0-|
|
| +W                            +H             E.    E. E
|-----------------------------|---------------------------|
|-----------------------------|---------------------------|
|-(5)-------------------------|-(5)-----------------------|
|-(5)-------------------------|-(5)------------4-----5--2-|
|-(3)-------------------------|-(3)------------4-----5--2-|
|-----------------------------|----------------2-----3--0-|


  +E  E  S  S   S   S   S  S   S   S   S   S   S   S
|-----0-(0)(0)--0---0--(0)(0)--0---0--(0)-(0)--0---0---|
|-----0--3s=5--(5)-(5)--5s=7--(7)-(7)--7s==8--(8)-(8)--|
|------------------------------------------------------|
|-(2)--------------------------------------------------|
|-(2)--------------------------------------------------|
|-(0)--------------------------------------------------|
|
| +W
|------------------------------------------------------|
|------------------------------------------------------|
|------------------------------------------------------|
|-(2)--------------------------------------------------|
|-(2)--------------------------------------------------|
|-(0)--------------------------------------------------|


   S   S    S    S   S   S    S    S  E. E. E   +H     E.E.E
|-(0)-(0)---0----0--(0)-(0)---0----0----------|---------------|
|--8s=10--(10)-(10)-10s=12--(12)-(12)---------|---------------|
|-------------------------------------------5-|-(5)----5S7S9S=|
|-------------------------------------4--5--5-|-(5)-----------|
|-------------------------------------4--5--3-|-(3)----3S5S7S=|
|-------------------------------------2--3----|---------------|
|
| +H                                  E. E. E   +W
|---------------------------------------------|---------------|
|---------------------------------------------|---------------|
|-------------------------------------------5-|-(5)-----------|
|-(2)---------------------------------4--5--5-|-(5)-----------|
|-(2)---------------------------------4--5--3-|-(3)-----------|
|-(0)---------------------------------2--3----|---------------|


       ~~~~~~~
                                         |---3---|
   E.  S  +Q   E. E. E   +H     +E   E   E   E   E
|----------------------|-----------------------------|
|----------------------|-----------------------------|
|-11S=12-(12)----------|------------------------<5>--|
|--------------4--5--2-|-(2)----(2)---------<5>------|
|--9S=10-(10)--4--5--2-|-(2)----(2)-----<5>----------|
|--------------2--3--0-|-(0)----(0)-<4>--------------|
|
| +H           E. E. E   +W
|----------------------|-----------------------------|
|----------------------|-----------------------------|
|-(5)------------------|-----------------------------|
|-(5)----------4--5--2-|-(2)-------------------------|
|-(3)----------4--5--2-|-(2)-------------------------|
|--------------2--3--0-|-(0)-------------------------|


    ~~~~~                PM------------|           PM----|     PM--|   PM
   +H.        +E    E    S S S S E S S S E. +Q     S S S S S S S S E E S E.
|----------------------|-------------------------|--------------------------|
|----------------------|-------------------------|--------------------------|
|-(<5>)------(<5>)-----|-----------------5--(5)--|-------------------7---7--|
|----------------------|-2-2-2-2-2-2-2-2-2--(2)--|-------------------7---5--|
|----------------------|-------------------------|-7-7-7-7-7p0-5-5-5-5-5----|
|------------------17\-|-------------------------|--------------------------|


  PM------------|
  S S S S E S S S E. +Q
|-------------------------|
|-------------------------|
|-----------------4--(4)--|
|-2-2-2-2-2-2-2-2-2--(2)--|
|-------------------------|
|-------------------------|


  PM----|     PM--|   PM     PM------------|
  S S S S S S S S E E S E.   S S S S E S S S E. +Q
|--------------------------|--------------------------|
|--------------------------|--------------------------|
|-------------------7---7--|-----------------5--(5)---|
|-------------------7---5--|-2-2-2-2-2-2-2-2-2--(2)---|
|-7-7-7-7-7p0-5-5-5-5-5----|--------------------------|
|--------------------------|--------------------------|


  PM--------------------------------------------------|
              |-3-| |-3-| |-3-| |-3-|
  S S S S E E S S S S S S S S S S S S   S S S S E S S S E. +Q
|-------------------------------------|-------------------------|
|-------------------------------------|-------------------------|
|-------------5-4-2-------------------|-----------------4--(4)--|
|-2-2-2-2-2-2-------5-4-2-------------|-2-2-2-2-2-2-2-2-2--(2)--|
|-------------------------5-3-2-------|-------------------------|
|-------------------------------5-3-2-|-------------------------|


  PM------------------------------------------------------------------|
              |-3-| |-3-| |-3-| |-3-|   |-3-|     |-3-| |-3-|   |-3-|
  S S S S E E S S S S S S S S S S S S   S S S e E S S S S S S e S S S e
|-------------------------------------|---------------------------------|
|-------------------------------------|---------------------------------|
|-------------5-4-2-------------------|---------------------------------|
|-2-2-2-2-2-2-------5-4-2-------------|---------------------------------|
|-------------------------5-3-2-------|---------------------------------|
|-------------------------------5-3-2-|-0-0-0-0---0-0-0-0-0-0-0-0-0-0-0-|


  PM--------------------------------------------------------------|
  |-3-|     |-3-| |-3-|   |-3-|     |-3-|     |-3-| |-3-|   |-3-|
  S S S e E S S S S S S e S S S e   S S S e E S S S S S S e S S S e
|---------------------------------|---------------------------------|
|---------------------------------|---------------------------------|
|---------------------------------|---------------------------------|
|---------------------------------|---------------------------------|
|---------------------------------|---------------------------------|
|-0-0-0-0---0-0-0-0-0-0-0-0-0-0-0-|-0-0-0-0---0-0-0-0-0-0-0-0-0-0-0-|


 Verse I
  PM--------------------------------------------------------------|
  |-3-|     |-3-| |-3-|   |-3-|     |-3-|     |-3-| |-3-|   |-3-|
  S S S e E S S S S S S e S S S e   S S S e E S S S S S S e S S S e
|---------------------------------|---------------------------------|
|---------------------------------|---------------------------------|
|---------------------------------|---------------------------------|
|---------------------------------|---------------------------------|
|---------------------------------|---------------------------------|
|-0-0-0-0---0-0-0-0-0-0-0-0-0-0-0-|-0-0-0-0---0-0-0-0-0-0-0-0-0-0-0-|


  PM--------------------------------------------------------------|
  |-3-|     |-3-| |-3-|   |-3-|     |-3-|     |-3-| |-3-|   |-3-|
  S S S e E S S S S S S e S S S e   S S S e E S S S S S S e S S S e
|---------------------------------|---------------------------------|
|---------------------------------|---------------------------------|
|---------------------------------|---------------------------------|
|---------------------------------|---------------------------------|
|---------------------------------|---------------------------------|
|-0-0-0-0---0-0-0-0-0-0-0-0-0-0-0-|-0-0-0-0---0-0-0-0-0-0-0-0-0-0-0-|


  PM--------------------------------------------------------------|
  |-3-|     |-3-| |-3-|   |-3-|     |-3-|     |-3-| |-3-|   |-3-|
  S S S e E S S S S S S e S S S e   S S S e E S S S S S S e S S S e
|---------------------------------|---------------------------------|
|---------------------------------|---------------------------------|
|---------------------------------|---------------------------------|
|---------------------------------|---------------------------------|
|---------------------------------|---------------------------------|
|-0-0-0-0---0-0-0-0-0-0-0-0-0-0-0-|-0-0-0-0---0-0-0-0-0-0-0-0-0-0-0-|


  PM--------------------------------------------------------------|
  |-3-|     |-3-| |-3-|   |-3-|     |-3-|     |-3-| |-3-|   |-3-|
  S S S e E S S S S S S e S S S e   S S S e E S S S S S S e S S S e
|---------------------------------|---------------------------------|
|---------------------------------|---------------------------------|
|---------------------------------|---------------------------------|
|---------------------------------|---------------------------------|
|---------------------------------|---------------------------------|
|-0-0-0-0---0-0-0-0-0-0-0-0-0-0-0-|-0-0-0-0---0-0-0-0-0-0-0-0-0-0-0-|


  PM--------------------------------------------------------------|
  |-3-|     |-3-| |-3-|   |-3-|     |-3-|     |-3-| |-3-|   |-3-|
  S S S e E S S S S S S e S S S e   S S S e E S S S S S S e S S S e
|---------------------------------|---------------------------------|
|---------------------------------|---------------------------------|
|---------------------------------|---------------------------------|
|---------------------------------|---------------------------------|
|---------------------------------|---------------------------------|
|-0-0-0-0---0-0-0-0-0-0-0-0-0-0-0-|-0-0-0-0---0-0-0-0-0-0-0-0-0-0-0-|


                        Pre-Chorus
                                        9/8             4/4
  PM----------|
  |-3-|
  S S S e E S S E Q  E   +Q   Q  Q  Q    Q  Q  Q.   Q    H    Q  E E
|----------------------|------2--------|-------3-------|-------------|
|----------------------|---------2-----|-------3----3--|-------------|
|--------------------4-|-(4)--------4--|-------0----2--|-4----4S=6S7-|
|---------------4-5--4-|-(4)-----------|-4-----0----0--|-4-----------|
|---------------4-5--2-|-(2)-----------|----2----------|-2----2S=4S5-|
|-0-0-0-0---0-0-2-3----|---------------|-------3----2--|-------------|


 9/8             4/4               9/8
   ~~                                    PM--------------------|
   H    Q.   Q    H    E. S E S S   E Q  S S S S S S S S S S S S
|---------------|-----------------|-------------------------------|
|---------------|---------7-8-----|-7-----------------------------|
|-11---------2--|-5----5--5-5-----|-5-5---------------------------|
|-------2----2--|-5----5----------|-5-5---------------------------|
|--9----2----0--|-3----3------3-3-|------3-3----------------------|
|-------0-------|-----------------|----------3-3-3-3-3-3-2-2-2-2--|


 4/4
  W          +W           +W           +W
|----------|------------|------------|--------|
|----------|------------|------------|--------|
|----------|------------|------------|--------|
|-2--------|-(2)--------|-(2)--------|-(2)----|
|-2--------|-(2)--------|-(2)--------|-(2)----|
|-0--------|-(0)--------|-(0)--------|-(0)----|


 Bridge
                       7/8             4/4
  Gtr III
  ~~~~~~~~~~~~~~~~~~~~~~~~~~~~~~~~~~~~~~~~
  W          W          +Q   H    +E    W
|-2--------|-5--------|-(5)--5----(5)-|-2----|
|-2--------|-3--------|-(3)--3----(3)-|-2----|
|-4--------|-2--------|-(2)--2----(2)-|-4----|
|-4--------|-0--------|-(0)--0----(0)-|-4----|
|----------|-0--------|-(0)--0----(0)-|------|
|-2--------|----------|---------------|-2----|


            7/8             4/4
  ~~~~~~~~~~~~~~~~~~~~~~~~~~~~~~~~~~~~~~~~
  W          +Q   H    +E    W          W
|-5--------|-(5)--5----(5)-|-2--------|-5----|
|-3--------|-(3)--3----(3)-|-2--------|-3----|
|-2--------|-(2)--2----(2)-|-4--------|-2----|
|-0--------|-(0)--0----(0)-|-4--------|-0----|
|-0--------|-(0)--0----(0)-|----------|-0----|
|----------|---------------|-2--------|------|


 7/8             4/4
   ~~~~~~~~~~~~~~~~~~~~~~~~~~~~
  +Q   H    +E    W          W          Q  E E E E E E
|-(5)--5----(5)-|-2--------|-5--------|----5-------2----|
|-(3)--3----(3)-|-2--------|-3--------|------8-------3--|
|-(2)--2----(2)-|-4--------|-2--------|-7------4--------|
|-(0)--0----(0)-|-4--------|-0--------|-5--------4------|
|-(0)--0----(0)-|----------|-0--------|-----------------|
|---------------|-2--------|----------|-----------------|


  Q  E E E E E E   E E E E E Q.        W                 W
|----------3-----|-----------0-------|-----------------|-----------------|
|--------3-------|---------0---------|-----------------|-----------------|
|------4-----4---|-------0-----------|-----------------|-----------------|
|----7---------7-|-----4-------------|-----------------|-----------------|
|----------------|---2---------------|-----------------|-----------------|
|-3--------------|-0-----------------|-----------------|-----------------|
|
| Gtr I
|                                         PM|      PM|      PM|      PM|
| W                H       Q     Q     Q  S S H    S S   Q  S S H    S S
|----------------|-------------------|--------2--------|-3------3--------|
|----------------|-------------------|--------3--------|-3------3--------|
|----------------|-------------------|-4------4--------|-4------4--------|
|----------------|--------------17\--|-4------4--------|-5------5--------|
|----------------|--------------17\--|-2--2-2-2----2-2-|-5------5--------|
|----------------|-------------------|-----------------|-3--3-3-3----3-3-|


  Gtr I
     PM|      PM|                  PM|      PM|      PM|      PM|
  Q  S S H    S S   H    H      Q  S S H    S S   Q  S S H    S S
|-2------2--------|-----------|--------2--------|-3------3--------|
|-5------5--------|-----------|--------3--------|-3------3--------|
|-4------4--------|-----------|-4------4--------|-4------4--------|
|-2------2--------|-4----7----|-4------4--------|-5------5--------|
|-2------2--------|-4----7----|-2--2-2-2----2-2-|-5------5--------|
|-0--0-0-0----0-0-|-2----5----|-----------------|-3--3-3-3----3-3-|


     PM|      PM|               PM------------|
  Q  S S H    S S   H    H      S S S S E S S S E. +Q
|-----------------|-----------|--------------------------|
|-5------5--------|-3---------|--------------------------|
|-4------4--------|-2----2----|-----------------5--(5)---|
|-2------2--------|-0----2----|-2-2-2-2-2-2-2-2-2--(2)---|
|-2------2--------|------0----|--------------------------|
|-0--0-0-0----0-0-|-----------|--------------------------|


  PM----|     PM--|   PM     PM------------|
  S S S S S S S S E E S E.   S S S S E S S S E. +Q
|--------------------------|-------------------------|
|--------------------------|-------------------------|
|-------------------7---7--|-----------------4--(4)--|
|-------------------7---5--|-2-2-2-2-2-2-2-2-2--(2)--|
|-7-7-7-7-7p0-5-5-5-5-5----|-------------------------|
|--------------------------|-------------------------|


                                                   Verse II
                                                    PM------------|
  |-3-| |-3-| |-3-| |-3-| |-3-| |-3-| |-3-| |-3-|
  S S S S S S S S S S S S S S S S S S S S S S S S   S S S S E S S S E. +Q
|-3-2-3-2---2-3-2-3-2---2-5-2-5-2---2-3-2---------|--------------------------|
|---------5-----------5-----------5-------5-3-----|--------------------------|
|---------------------------------------------4-2-|-----------------5--(5)---|
|-------------------------------------------------|-2-2-2-2-2-2-2-2-2--(2)---|
|-------------------------------------------------|--------------------------|
|-------------------------------------------------|--------------------------|


  PM----|     PM--|   PM
  S S S S S S S S E E S E.
|--------------------------|
|--------------------------|
|-------------------7---7--|
|-------------------7---5--|
|-7-7-7-7-7p0-5-5-5-5-5----|
|--------------------------|


  PM------------|           PM----|     PM--|   PM
  S S S S E S S S E. +Q     S S S S S S S S E E S E.
|-------------------------|--------------------------|
|-------------------------|--------------------------|
|-----------------4--(4)--|-------------------7---7--|
|-2-2-2-2-2-2-2-2-2--(2)--|-------------------7---5--|
|-------------------------|-7-7-7-7-7p0-5-5-5-5-5----|
|-------------------------|--------------------------|


  PM------------|
  S S S S E S S S E. +Q
|-------------------------|
|-------------------------|
|-----------------5--(5)--|
|-2-2-2-2-2-2-2-2-2--(2)--|
|-------------------------|
|-------------------------|


  PM----|     PM--|   PM     PM------------|
  S S S S S S S S E E S E.   S S S S E S S S E. +Q
|--------------------------|--------------------------|
|--------------------------|--------------------------|
|-------------------7---7--|-----------------4--(4)---|
|-------------------7---5--|-2-2-2-2-2-2-2-2-2--(2)---|
|-7-7-7-7-7p0-5-5-5-5-5----|--------------------------|
|--------------------------|--------------------------|


  PM----|     PM--|   PM
  S S S S S S S S E E S E.
|--------------------------|
|--------------------------|
|-------------------7---7--|
|-------------------7---5--|
|-7-7-7-7-7p0-5-5-5-5-5----|
|--------------------------|


  PM------------|           PM----|     PM|
  S S S S E S S S E. +Q     S S S S S S S S E. E. E
|-------------------------|--------------------------|
|-------------------------|--------------------------|
|-----------------5--(5)--|-----------------------4--|
|-2-2-2-2-2-2-2-2-2--(2)--|-----------------4--5--4--|
|-------------------------|-7-7-7-7-7p0-5-5-4--5--2--|
|-------------------------|-----------------2--3-----|


                                            9/8
       |-3-| |-3-| |-3-| |-3-| |-3-| |-3-|   |-3-| |-3-| |-3-| |-3-|
  +Q   S S S S S S S S S S S S S S S S S S   S S S S S S S S S S S S Q.   Q
|------------------------------------------|---------------------------------|
|------5p0h5p0h5p0h5p0h5p0h5p0h5p0h5p0h5p0h|=5p0h5p0h5p0h5p0h5p0h5p0-3----3--|
|-(4)--------------------------------------|-------------------------0----2--|
|-(4)--------------------------------------|-------------------------0----0--|
|-(2)--------------------------------------|---------------------------------|
|------------------------------------------|-------------------------3----2--|


 4/4                 9/8                4/4
                ~~~~~~~~~~~~                    PM|   PM|   PM
           |-3--|
  Q  +E. S Q Q  Q      +H      Q.   Q    H    S S S S S S S S
|-------------------|------------------|-----------------------|
|-------------------|------------------|------5-----7-----8----|
|-4--(4)------------|----------9----7--|-5------5-----5-----5--|
|-4--(4)------------|----------9----7--|-5--------5-----5------|
|-2--(2)---2-4-[5]--|-([5])----7----5--|-----------------------|
|-2--(2)-2----------|----------0-------|-----------------------|


                                     Q=131
 9/8                                  12/8
  PM  PM|     ~  PM----------------|
  S S S S a a Q  S S S S S S S S S S   W        +H
|------------------------------------|-----------------|
|---7--------------------------------|-----------------|
|-----5-------5----------------------|-----------------|
|-5-----5---x----5-7-5-4-------------|-2--------(2)----|
|---------x--------------7-5-3-------|-2--------(2)----|
|------------------------------7-5-3-|-0--------(0)----|


                                         Instrumental Section
                     10/8                6/8
                                          PM-----------|
  +H     +W           E E E Q  E E E Q    E E  E E S S E
|-------------------|-------------------|----------------|
|-------------------|-------------------|----------------|
|-------------------|-7-----------------|----------------|
|-(2)----(2)--------|-5---9----7---7----|-----11---9-9---|
|-(2)----(2)--------|-----7----5---4----|---9----9-------|
|-(0)----(0)--------|-------------------|-7------------7-|


 7/8                 6/8              7/8                 6/8
  PM-----------------------------------------|   PM---------------------|
  E E E S S E E S S   E E  E E S S E   E E E S S E E S S   E E  E E S S E
|-------------------|----------------|-------------------|------------------|
|-------------------|----------------|-------------------|------------------|
|-------------------|----------------|-------------------|------------------|
|-----9-----9-------|-----11---9-9---|-----7-----9-------|-----11---9-9-----|
|---7---7-7---7-----|---9----9-------|---5---5s7---7-----|---9----9---------|
|-5-------------5-5-|-7------------7-|-3-------------5-5-|-7------------7---|


 7/8                 6/8              7/8               6/8
  PM-----------------------------------------|   PM--|
  E E E S S E E S S   E E  E E S S E   E E E S S E E E    E  E  E  E  S  S  E
|-------------------|----------------|-----------------|----------------------|
|-------------------|----------------|-----------------|----------------------|
|-------------------|----------------|-----------------|-------18----16-16----|
|-----9-----9-------|-----11---9-9---|-----7-----9-----|----16----16-------16-|
|---7---7-7---7-----|---9----9-------|---5---5s7---7---|-14-------------------|
|-5-------------5-5-|-7------------7-|-3-------------5-|----------------------|
|
| Gtr II
| W                   W                W                  E  E  E  E  S  S  E
|-------------------|----------------|-----------------|----------------------|
|-------------------|----------------|-----------------|-------17----15-15----|
|-------------------|----------------|-----------------|----16----16-------16-|
|-------------------|----------------|-----------------|-12-------------------|
|-------------------|----------------|-----------------|----------------------|
|-------------------|----------------|-----------------|----------------------|


 7/8                    6/8
   E  E  E  E  E  E  E    E  E  E  E  S  S  E
|----------------------|----------------------|
|----------------------|----------------------|
|-------16----16-------|-------18----16-16----|
|----14----14----14----|----16----16-------16-|
|-12----------------12-|-14-------------------|
|----------------------|----------------------|
|
|  E  E  E  E  E  E  E    E  E  E  E  S  S  E
|-------12----12-------|----------------------|
|----------------------|-------17----15-15----|
|----12----12----12----|----16----16-------16-|
|-11----------------11-|-12-------------------|
|----------------------|----------------------|
|----------------------|----------------------|


 7/8                       6/8
   E  E  E  S  S  E  E  E    E  E  E  E  S  S  E
|-------------------------|-----------------------|
|-------------------------|-----------------------|
|----------------19-------|-------18----16-16-----|
|-------19-16h17----17----|----16----16-------16--|
|----17-------------------|-14--------------------|
|-15-------------------17-|-----------------------|
|
|  E  E  E  E     E  E  E    E  E  E  E  S  S  E
|----------------19-------|-----------------------|
|----------17-------17----|-------17----15-15-----|
|-------18----------------|----16----16-------16--|
|----16----------------11-|-12--------------------|
|-14----------------------|-----------------------|
|-------------------------|-----------------------|


 7/8                    6/8                    7/8
   E  E  E  E  E  E  E    E  E  E  E  S  S  E    E  E  E  S  S  E  E  S  S
|----------------------|----------------------|----------------------------|
|----------------------|----------------------|----------------------------|
|-------16----16-------|-------18----16-16----|----------------19----------|
|----14----14----14----|----16----16-------16-|-------19-16h17----17-------|
|-12----------------12-|-14-------------------|----17----------------16p14-|
|----------------------|----------------------|-15-------------------------|
|
|                                                                     ~~~
|  E  E  E  E  E  E  E    E  E  E  E  S  S  E    E  E  E  E     E  E  E
|-------12----12-------|----------------------|----------------19----------|
|----------------------|-------17----15-15----|----------17-------17-------|
|----12----12----12----|----16----16-------16-|-------18-------------14----|
|-11----------------11-|-12-------------------|----16----------------------|
|----------------------|----------------------|-14-------------------------|
|----------------------|----------------------|----------------------------|


 6/8
  |-3--| |-3--| |--3--| |--3--| |--3--| |--3--|
  S S  S S S  S S  S  S S  S  S S  S  S S  S  S
|-----------------------------------------------|
|-----------------------------------------------|
|-----------------------------------------------|
|---------------------------------------9-11-12-|
|--------7-9-10---------9-10-12-9-10-12---------|
|-7-9-10--------9-10-12-------------------------|


 7/8
  |--3--| |--3--|  |--3--|  |--3--|  |--3--|  |--3--|  |--3--|
  S  S  S S  S  S  S  S  S  S  S  S  S  S  S  S  S  S  S  S  S
|--------------------------------------------------------------|
|--------------------------------------------12-14-15-12-14-15-|
|---------9-11-12----------11-12-14-11-12-14-------------------|
|-9-11-12---------11-12-14-------------------------------------|
|--------------------------------------------------------------|
|--------------------------------------------------------------|


 6/8
   |--3--|  |--3--|  |--3--|  |--3--|  |--3--|  |--3--|
   S  S  S  S  S  S  S  S  S  S  S  S  S  S  S  S  S  S
|-12-14-15----------14-15-17-17-15-14-------------------|
|----------14-15-17-------------------17-15-14----------|
|----------------------------------------------16-14-12-|
|-------------------------------------------------------|
|-------------------------------------------------------|
|-------------------------------------------------------|


 7/8
   |--3--|  |--3--|  |--3--|  |--3--|  |--3--|  |--3--|  |--3--|
   S  S  S  S  S  S  S  S  S  S  S  S  S  S  S  S  S  S  S  S  S
|----------------------------------------------------------------|
|----------------------------------------------------------------|
|----------------------------------------------------------------|
|-16-14-12-------------------------------------------------------|
|----------16-14-12-------------------14-16-17----------16-17-19-|
|-------------------15-14-12-14-15-17----------15-17-19----------|


 6/8
   |--3--|  |--3--|  |--3--|  |--3--|  |--3--|  |--3--|
   S  S  S  S  S  S  S  S  S  S  S  S  S  S  S  S  S  S
|-------------------------------------------------------|
|-------------------------------------------------------|
|----------------------------------------------14-16-18-|
|----------14-16-17----------16-17-19-14-16-17----------|
|-14-16-17----------16-17-19----------------------------|
|-------------------------------------------------------|


 7/8
   |--3--|  |--3--|  |--3--|  |--3--|  |--3--|  |--3--|  |--3--|
   S  S  S  S  S  S  S  S  S  S  S  S  S  S  S  S  S  S  S  S  S
|----------------------------------------------------------------|
|----------------------------------------------------------------|
|----------16-18-19----------18-19-21----------------------------|
|-16-17-19----------17-19-21-------------------17-19-21----------|
|-------------------------------------------------------17-19-21-|
|-------------------------------------17-19-21-------------------|


 6/8
   |--3--|  |--3--|  |--3--|  |--3--|  |--3--|  |--3--|
   S  S  S  S  S  S  S  S  S  S  S  S  S  S  S  S  S  S
|----------------------------------------------19-22-21-|
|-------------------------------------19-20-22----------|
|-18-19-21----------18-19-21-18-19-21-------------------|
|----------17-19-21-------------------------------------|
|-------------------------------------------------------|
|-------------------------------------------------------|


 7/8                                   6/8
                                    PM----|   PM        PM--|
   E     S     +S   E  E      +Q    E   E E E E S S E   E E E E E E
|-21b23-21b23r(21)----22b24==(22)r----|---------------|-------2------|
|------------------19-----------------|---------------|---------2----|
|-------------------------------------|-----6---4-4---|-----4-----4--|
|-------------------------------------|---4---4-----2-|---2----------|
|-----------------------------------0-|-2-------------|-0------------|
|-------------------------------------|---------------|--------------|


                                           4/4
  PM|   PM|     PM--|         PM--|
  E E E E E E   E E E E E E   E E E E E E   E Q.   +H       +W
|-------------|-------------|-------------|-0-0----(0)----|-(0)----|
|-------------|-------------|-------------|-0-0----(0)----|-(0)----|
|-----2-------|-------0-----|-------2-----|-5-4----(4)----|-(4)----|
|---0-------7-|-----4---4---|-----6-------|-3-2----(2)----|-(2)----|
|-2-------5---|---2-------2-|---4-----4-0-|-0-0----(0)----|-(0)----|
|-------3-----|-0-----------|-2-----------|---------------|--------|


  E  Q.   +H       +W           E Q.   +H       +W
|----------------|------------|---------------|--------|
|----------------|------------|---------------|--------|
|-4s=9----(9)----|-(9)--------|-9s7----(7)----|-(7)----|
|-2s=7----(7)----|-(7)--------|-9s5----(5)----|-(5)----|
|-0-(0)---(0)----|-(0)--------|-7s5----(5)----|-(5)----|
|----------------|------------|---------------|--------|


                                9/8          4/4
  E Q.   +Q   Q    Q  Q  Q  Q    E W          +H.      +E  E
|----------------|----1--------|------------|-----------------|
|----------------|-1-----1-----|---0--------|-(0)------(0)----|
|-------------4--|----------4--|------------|-----------------|
|----------------|-------------|---4--------|-(4)------(4)----|
|---3----(3)-----|-------------|---4--------|-(4)------(4)----|
|-0-1----(1)-----|-------------|-0-2--------|-(2)------(2)-0--|


                     ~~~~~~~~~
  Q  E E   Q     E.  S    +W           E S S S S E H      H    E  Q.
|--------<12>----------|-------------|---0-0-0-0-0------|--------------|
|--------------<12>----|-------------|---0-0-0-0-0------|--------------|
|-3--3--------------15-|-(15)--------|---3-3-3-3-3------|--------------|
|-4--4-----------------|-------------|---4-4-4-4-4------|--------17\---|
|-4--4-----------------|-------------|---4-4-4-4-4------|--------17\---|
|-2--2-----------------|-------------|---2-2-2-2-2------|--------------|


  E H.      +E    +H.      +E  E    W           E  E S  E S S S  E  E E
|---------------|----------------|--9--------|--9--9-x--9-x-x-x--9--9-7-|
|---0-------(0)-|-(0)------(0)---|--9--------|--9--9-x--9-x-x-x--9--9-7-|
|---3-------(3)-|-(3)------(3)---|-11--------|-11-11-x-11-x-x-x-11-11-9-|
|---4-------(4)-|-(4)------(4)---|-11--------|-11-11-x-11-x-x-x-11-11-9-|
|---4-------(4)-|-(4)------(4)---|--9--------|--9--9-x--9-x-x-x--9--9-7-|
|-0-2-------(2)-|-(2)------(2)-0-|-----------|--------------------------|


   E H    E Q    E S S E H    E   E E Q  S S E Q    E H    E Q
|--9-----------|----------------|-----------------|-------------|
|--9-----------|----------------|-----------------|-------------|
|-11-----------|----------------|-----------------|-------------|
|-11------4----|---4-4-4------4-|-5------5-5-5----|--------5----|
|--9------4----|---4-4-4------4-|-5------5-5-5----|--------5----|
|---------2----|---2-2-2------2-|-3------3-3-3----|--------3----|


                                           ~~~~~~~~
  E Q  E H      Q  E E Q  E E   H    Q  E. S   +W
|-------------|---------------|------0-------|--------|
|-------------|---------------|---------0----|--------|
|-------------|---------------|------------3-|-(3)----|
|-7----7------|----9----------|-4------------|--------|
|-7----7------|----7--------2-|-4------------|--------|
|-5----5------|----7--------0-|-2------------|--------|


 8/8
   S E  S E  S S  E  T  T  T  T  T  T  T  T  T  T  T  T
|-12----------------14-13-12-11-------------------------|
|------12---11------------------15-14-13-12-------------|
|----------------11-------------------------15-14-13-12-|
|-------------------------------------------------------|
|-------------------------------------------------------|
|-------------------------------------------------------|


                     |--3--|  |--3--|  |--3--|
   S E  S E  S S  E  S  S  S  S  S  S  S  S  S
|----------------------------------------------|
|----------------------------------------------|
|----------------------------------------------|
|-16---14---13------14-16-14-13----------------|
|----------------16-------------16-15-14-13----|
|-------------------------------------------16-|


                                      ~~~~~~~~~~~~~~~~~~~~
                      |--3--|
   E.  E.  E   E  Q   S  S  S    E.   S  +Q.    +Q    +S   S
|-----------------------------|------------------------------|
|-----------------------------|------------------------------|
|-----------------------------|---------------------------21-|
|-----------------------------|-----/16-(16)---(16)--(16)----|
|------------/18-16--14h16p14-|-13---------------------------|
|-14--12--11------------------|------------------------------|


   E.  E.  E  S  E  E.  E    Q   +S   E  a S +Q.   E
|-----21-----18s19--------|---------------------------|
|-19------19-------17--19-|-16--(16)------------------|
|-------------------------|----------16-16s8-(8)------|
|-------------------------|------------------------9--|
|-------------------------|---------------------------|
|-------------------------|---------------------------|


                                                          ~~~~~~~
  E.  S E S  S S  S S  S S  S S  S    S  S  S S  S  S  S  S  +H
|--------------9-14------9-12------|----------9---------------------|
|-------------------------------10-|-11-12-13---10-11---------------|
|----11---9-11------9-11-----------|------------------11------------|
|-8--------------------------------|---------------------11-(11)----|
|----------------------------------|--------------------------------|
|----------------------------------|--------------------------------|


   S S  S  S  S S  S  S S S  S S S  S S S
|-----------------------------------------|
|-12-9-10-11-10-9-------------------------|
|-----------------11-10-9-8----8-9-10-9-8-|
|---------------------------11------------|
|-----------------------------------------|
|-----------------------------------------|


                                    PM--|
                                    |-3-|
   S  S S S  S S S  S S S  S  S S S S S S
|------------------------------------------|
|------------------------------------------|
|------------------------------------------|
|-11-10-9-8----8-9-11-9-8-----------6-7-8--|
|-----------11------------11-10-9-8--------|
|------------------------------------------|


        PM----|       PM----|       PM----|       PM----|
  |--3--| |-3-| |--3--| |-3-| |--3--| |-3-| |--3--| |-3-|
  S +S  S S S S S +S  S S S S S +S  S S S S S +S  S S S S
|---------------------------------------------------------|
|-7-(7)---------5-(5)-------------------------------------|
|-----------------------------6-(6)---------4-(4)---------|
|-------6-4-5-6-------------------------------------------|
|---------------------8-6-7-8-------6-4-5-6-------4-2-3-4-|
|---------------------------------------------------------|


        ~~~~~~~~~~
  S E. +H     +E. S
|----------------------|
|-----------------9b11-|
|-3--------------------|
|----------------------|
|---4--(4)----(4)------|
|----------------------|


                           |-3-|
  +S  S S S Q     S S S  S S S S  S S   T T S S S S S S S T T S S S S S S S
|-----7-8-9-9b12--9-8-7----7h8p7------|-8s7-5-----5-6------------------------|
|-(9)-------------------10-------10-7-|-------7-5-----7----------------------|
|-------------------------------------|-----------------6-5s4-2-----2-3------|
|-------------------------------------|-------------------------4-2-----4-2--|
|-------------------------------------|--------------------------------------|
|-------------------------------------|--------------------------------------|


  S S S S S S S S Q  +S  +E.     +Q   H.               E E +H.
|------------------------------|---------------------|------------|
|------------------------------|---------------------|------------|
|------------------------------|---------------------|---3-(3)----|
|-4-2-------------4--(4)-(4)b7r|=(4)--4tr2-----------|-2-4-(4)----|
|-----4-3-2-0------------------|---------------------|-2-4-(4)----|
|-------------3-2--------------|---------------------|-0-2-(2)----|


                                          6/8
                                           PM|     PM
  +H.      +E  E   W          +W           S S S E S E E E
|----------------|----------|------------|------------------|
|----------------|----------|------------|------------------|
|-(3)------(3)---|-3--------|-(3)--------|-------4----------|
|-(4)------(4)-2-|-4--------|-(4)--------|-----2-------3-5--|
|-(4)------(4)-2-|-4--------|-(4)--------|-----------3------|
|-(2)------(2)-0-|-2--------|-(2)--------|-0-0-----0--------|


  PM|     PM        PM|     PM        PM|     PM
  S S S E S E E E   S S S E S E E E   S S S E S E E E   W        W
|-----------------|-----------------|-----------------|--------|------|
|-----------------|-----------------|-----------------|--------|------|
|-------4---------|-------4---------|-------4---------|--------|------|
|-----2-------3-5-|-----2-------3-5-|-----2-------3-5-|--------|------|
|-----------3-----|-----------3-----|-----------3-----|--------|------|
|-0-0-----0-------|-0-0-----0-------|-0-0-----0-------|--------|------|


                    ~~~~~~~~~~~~~~~~~~~~~~~~~~~~~~~~~~~~~~~~~~~~~~~~~~~
  W        W        Q.    Q.      Q.    Q.      Q.    Q.      Q.    Q.
|--------|--------|------12----|-------10----|-------------|--------------|
|--------|--------|------------|-10----------|-12----------|-10-----------|
|--------|--------|-9----------|-------------|-------12----|--------------|
|--------|--------|------------|-------------|-------------|-------12-----|
|--------|--------|------------|-------------|-------------|--------------|
|--------|--------|------------|-------------|-------------|--------------|


      ~~~~~~~~~~~~                ~~~~~~~~~~~~~~~~~~~~~~~~~~~~~
   S  E.  +E   Q.     a a   Q.    Q.      Q.   Q.      Q.   Q.
|-------------------|------------------|------------|------------|
|-------------15----|------------------|------------|------------|
|-------------------|-----[15]---16----|-13----9----|-11---------|
|-12s14--(14)-------|---x--------------|------------|-------8----|
|-------------------|-x----------------|------------|------------|
|-------------------|------------------|------------|------------|


   S  S  S  S  E  S  E  E  S
|----------------------17-15s|
|----17-------17-------------|
|----------------16-14-------|
|-14----14-14----------------|
|----------------------------|
|----------------------------|


   S  S  S  S  E S  S  E  S  S    +S   E  E  S  E  E.  S
|-16---------------------------|------17-19-16----17--16-|
|----17-------17------17-------|---------------17--------|
|------------------------16-14-|-(14)--------------------|
|-------14-14------14----------|-------------------------|
|------------------------------|-------------------------|
|------------------------------|-------------------------|


   +S   S S  E  E  S  S S E   E S E. E. E.
|-(16)s22-------------------|-----------9--|
|-----------------17s22-----|--------------|
|---------------------------|--------------|
|-----------13-14-------7-8-|-9---7--6-----|
|---------------------------|---7----------|
|---------------------------|--------------|


                   ~~~~~~~~~       PM|     PM
   E  S  E  E.  E  E    +H.        S S S E S E E E
|-10s16--------------|-----------|------------------|
|-----------------17-|-(17)------|------------------|
|--------------16----|-----------|-------4----------|
|-------14-18--------|-----------|-----2-------3-5--|
|--------------------|-----------|-----------3------|
|--------------------|-----------|-0-0-----0--------|


                   9/8
  PM|     PM        PM--|       PM--|     PM
  S S S E S E E E   S S S S S S S S S S S S E E E
|-----------------|-------------------------------|
|-----------------|-------------------------------|
|-------4---------|-------------------------------|
|-----2-------3-5-|-------2-2-2-------2-2-----2-3-|
|-----------3-----|-------------------------2-----|
|-0-0-----0-------|-0-0-0-------0-0-0-----0-------|


  PM--|       PM--|     PM
  S S S S S S S S S S S S E E E
|-------------------------------|
|-------------------------------|
|-------------------------------|
|-------2-2-2-------2-2-----2-3-|
|-------------------------2-----|
|-0-0-0-------0-0-0-----0-------|


  PM--|       PM--|     PM
  S S S S S S S S S S S S E E E
|-------------------------------|
|-------------------------------|
|-------------------------------|
|-------2-2-2-------2-2-----2-3-|
|-------------------------2-----|
|-0-0-0-------0-0-0-----0-------|


                                 7/8
  PM--|       PM--|     PM
  S S S S S S S S S S S S E E E   S S S S S S S S S S S S E
|-------------------------------|----------------------------|
|-------------------------------|----------------------------|
|-------------------------------|-------6-3-------------7----|
|-------2-2-2-------2-2-----2-3-|-----5-----4---------6------|
|-------------------------2-----|---4---------5-----5--------|
|-0-0-0-------0-0-0-----0-------|-3-------------6-4----------|


 9/8                                  7/8
  S S S  S S S S  S S S  S  S E  E E    S  S  S  S  S  S  S  S  S  S  S  S E
|------------------------------------|----------------------------------------|
|------------------------------------|----------------------------------------|
|-------10-7---------------11---13---|----------14-11-------------------15----|
|-----9------8----------10------12---|-------13-------12-------------14-------|
|---8----------9------9---------11---|----12-------------13-------13----------|
|-7--------------10-8-----------10---|-11-------------------14-12-------------|


 19/16                                      13/16
                                             PM----------------------|
   S  S  S  S  S  S E  E S  S  E S  S  S E   S S S S S S S S S S S S S
|---------------------11-------------------|----------------------------|
|-11-10------------------------------------|----------------------------|
|-------13-12-11-10----------------13-12---|----------------------------|
|--------------------------12-12-----------|----------------------------|
|------------------------------------------|-------------5-4-3-2-1-0----|
|------------------------------------------|-5-4-3-2-1-0----------------|


 7/8                         13/16
  PM--------------------------------------------------|
  S S S S S S S S S S S S E   S S S S S S S S S S S S S
|---------------------------|---------------------------|
|---------------------------|---------------------------|
|---------------------------|---------------------------|
|---------------------------|---------------------------|
|-------------5-4-3-2-1-0---|-------------5-4-3-2-1-0---|
|-5-4-3-2-1-0---------------|-5-4-3-2-1-0---------------|


                            E
 7/8
  PM-------------------------
  S S S S S S S S S S S S E
|---------------------------|
|---------------------------|
|---------------------------|
|---------------------------|
|-------------5-4-3-2-1-0---|
|-5-4-3-2-1-0---------------|


 .=215
 12/8
 -----|   PM|               PM--|   PM|
  E E E E E E E E E E E E   E E E E E E E E E E E E
|-------------------------|-------------------------|
|-------------------------|-------------------------|
|-------------------------|-------------------------|
|-------4-----5---4---4---|-------4-----5---4---4---|
|---------2-3---3---2---2-|---------2-3---3---2---2-|
|-3-2-3-------------------|-3-2-3-------------------|


                                                     9/8
  PM--|   PM|               PM--|   PM|               PM--|   PM|   PM|
  E E E E E E E E E E E E   E E E E E E E E E E E E   E E E E E E E E E
|-------------------------|-------------------------|--------------------|
|-------------------------|-------------------------|--------------------|
|-------------------------|-------------------------|--------------------|
|-------4-----5---4---4---|-------4-----5---4---4---|-------4-----5------|
|---------2-3---3---2---2-|---------2-3---3---2---2-|---------2-3---3-2--|
|-3-2-3-------------------|-3-2-3-------------------|-3-2-3--------------|


 12/8
    PM  PM|   PM      PM|     PM  PM|   PM      PM|     PM
  E E E E E E E E E E E E   E E E E E E E E E E E E   E E E E E E E E E E E E
|-------------------------|-------------------------|-------------------------|
|-------------------------|-------------------------|-------------------------|
|-------------------------|-------------------------|-2-----------------------|
|-5---4-----4---2---------|-5---4-----4---2---------|-----5-2---4-------2-----|
|---3---2---------3-5-2-2-|---3---2---------3-5-2-3-|---3-----5---5-2-3---5-3-|
|---------5---5-----------|---------5---5-----------|-------------------------|


                        PM    PM  PM|   PM  PM|   PM    PM  PM    PM  PM|   PM
  E E E E E E E E E E E E   E E E E E E E E E E E E   E E E E E E E E E E E E
|-------------------------|-------------------------|--------------------------|
|-------------------------|-------------------------|--------------------------|
|-2-----------------------|-------------------------|--------------------------|
|-----5-2---4-------2-----|-4---5-----5---7-----4---|-5---7-----4---5-----4----|
|---3-----5---5-2-3---5---|-------------------------|-------------------3---3--|
|-----------------------2-|---2---2-3---3---3-5---5-|---5---5-7---7---7--------|


    PM  PM|   PM  PM|   PM    PM|   PM   PM   PM|
  E E E E E E E E E E E E   E E E E E  E E  E E E E E
|-------------------------|---------------------------|
|-------------------------|---------------------------|
|-------------------------|-----------------------9---|
|-5---7-----5---7-----7---|-9-----9---10---12---------|
|---3---3-5---5---5-7---7-|---7-8---8----8----8-9---9-|
|-------------------------|---------------------------|


  E  E E  E  E  E  E  E E  E  E E
|----------------------------------|
|----------------------------------|
|---12---11-------11----9----------|
|-9----9----10------------10-12-9--|
|--------------12----12------------|
|----------------------------------|


  E  E E  E  E  E  E  E E  E  E E    E  E  E  E E  E  E  E E  E E  E
|---------------------------------|----------------------------------|
|---------------------------------|----10----------------------------|
|---12---11-------11----9---------|----------12-9----11---------9----|
|-9----9----10------------10-12-9-|-10----10------12----12-9-10---12-|
|--------------12----12-----------|----------------------------------|
|---------------------------------|----------------------------------|


   E  E  E  E E  E  E  E E  E E  E
|-----------------------------------|
|----10-----------------------------|
|----------12-9----11---------9-----|
|-10----10------12----12-9-10---12--|
|-----------------------------------|
|-----------------------------------|


 6/8                 5/8              7/8
   E  E  E  E  E  E    E  E  E  E  E    E  E  E  E  E  E  E
|----15----14-------|-14----12-------|-14----12-------------|
|-------------15----|----------13----|----------13-15-12-12-|
|-16----16-------14-|----14-------14-|----14----------------|
|-------------------|----------------|----------------------|
|-------------------|----------------|----------------------|
|-------------------|----------------|----------------------|
|
| Gtr II
|  E  E  E  E  E  E    E  E  E  E  E    E  E  E  E  E  E  E
|-------------------|----------------|----------------------|
|----17----15-------|-15----13-------|-15----13-------------|
|-------------16----|----------14----|----------14-16-12-12-|
|-17----17-------16-|----17-------16-|----17----------------|
|-------------------|----------------|----------------------|
|-------------------|----------------|----------------------|


 5/8              7/8                    5/8
   E  E  E  E  E    E  E  E  E  E  E  E    E  E  E  E  E
|-15----14-------|-17----15----14-------|-19----17-14------|
|----------15----|----------17----15----|----15-------17---|
|----16-------17-|----17-------------16-|------------------|
|----------------|----------------------|------------------|
|----------------|----------------------|------------------|
|----------------|----------------------|------------------|
|
|  E  E  E  E  E    E  E  E  E  E  E  E    E  E  E  E  E
|----------------|----------------------|------------------|
|-17----15-------|-17----17----15-------|-20----19-15------|
|----------16-14-|----14----17-------16-|----16-------17---|
|----17----------|----------------17----|------------------|
|----------------|----------------------|------------------|
|----------------|----------------------|------------------|


                  9/8                          5/8
                                                 ~~~~~~~~~~~~~~~~~~~~
   E  E  E  E  E    E  E  E  E  E  E  E  E  E    H              +E
|-17----15-------|-17----19-15-17-------22----|-22b24==========(22)-|
|----------17-17-|----17----------19-19-------|---------------------|
|----17----------|-------------------------19-|---------------------|
|----------------|----------------------------|---------------------|
|----------------|----------------------------|---------------------|
|----------------|----------------------------|---------------------|
|
|  E  E  E  E  E    E  E  E  E  E  E  E  E  E    E     E E S S   E
|----------------|----------------------------|---------------------|
|-19----17-------|-------20-17-19-------19----|---------------------|
|----14----17-17-|-17-16----------19-19----19-|---------------------|
|----------------|----------------------------|--5-----7-5-4-4------|
|----------------|----------------------------|------------------7--|
|----------------|----------------------------|---------------------|


 ~~~~~~~~~~~~~~~~~~~~~~~~~~~~~~~~~~~~~~~~~~~~~~~~~~~~~~~~
   +H         +E     +H           +E     +H         +E
|-(22)-------(22)-|-(22)---------(22)-|-(22)-------(22)r-|
|-----------------|-------------------|------------------|
|-----------------|-------------------|------------------|
|-----------------|-------------------|------------------|
|-----------------|-------------------|------------------|
|-----------------|-------------------|------------------|
|
|   E  E E E   E      E  S S E E   E      E  E E E   E
|-----------------|-------------------|------------------|
|-----------------|-------------------|------------------|
|-----------------|-------------------|------------------|
|----------5---7--|---5--4-4----------|------------------|
|---5--3----------|----------7-5---3--|------------------|
|--------7--------|-------------------|---7--5-3-2---0---|


                       Verse III
                      Q=120
                       3/4
                      Gtr III
  E E E Q    E E E Q    E E E E E E   E E E E E E   Q  E E E E   E E E E E E
|----------|----------|-------0-----|-------------|------------|-------0------|
|----------|----------|---------3---|-------3-----|--------3---|-----3--------|
|-7--------|----------|-----4-----4-|-----4---4---|------0---0-|---2-------4--|
|-5---9----|-7---7----|---4---------|---4-------4-|----4-------|-0------------|
|-----7----|-5---4----|-2-----------|-------------|------------|---------0----|
|----------|----------|-------------|-3-----------|-0----------|--------------|


  E E E E E E   E E E E E E   Q  E E E E
|-------0-----|-------------|------------|
|---------3---|-------3-----|--------3---|
|-----4-----4-|-----4---4---|------0---0-|
|---4---------|---4-------4-|----4-------|
|-2-----------|-------------|------------|
|-------------|-3-----------|-0----------|


  E E Q  E E   E E E E E E   Q  E E E E
|------------|-------0-----|------------|
|------------|---------3---|------3-----|
|-----0------|-----4-----4-|----4---4---|
|---4--------|---4---------|----------4-|
|-5------4-0-|-2-----------|------------|
|------------|-------------|-3----------|


  Q  E E E E   E E E E Q    Q  E E E E
|------------|------------|------------|
|--------3---|------------|------3-----|
|------0---0-|-----0------|----0---0---|
|----4-------|---4---4----|----------4-|
|------------|-5-------0--|-2----------|
|-0----------|------------|------------|


  E E E E E E   E E E E E E   E E E E E E
|-------------|-------------|-------------|
|-------3-----|-------3-----|-------3-----|
|-----0---0---|-----0---0---|-----0-----0-|
|---4-------4-|---4-------4-|---4-----4---|
|-------------|-------------|-5-----------|
|-3-----------|-0-----------|-------------|


 4/4
  Gtr I
     PM|      PM|      PM|      PM|      PM|      PM|
  Q  S S H    S S   Q  S S H    S S   Q  S S H    S S
|-----------------|-3------3--------|-2------2--------|
|-3------3--------|-3------3--------|-5------5--------|
|-4------4--------|-4------4--------|-4------4--------|
|-4------4--------|-5------5--------|-2------2--------|
|-2--2-2-2----2-2-|-5------5--------|-2------2--------|
|-----------------|-3--3-3-3----3-3-|-0--0-0-0----0-0-|


                 PM|      PM|      PM|      PM|
  H    H      Q  S S H    S S   Q  S S H    S S
|-----------|-----------------|-3------3--------|
|-----------|-3------3--------|-3------3--------|
|-7---------|-4------4--------|-4------4--------|
|-7----7----|-4------4--------|-5------5--------|
|-5----7----|-2--2-2-2----2-2-|-5------5--------|
|------5----|-----------------|-3--3-3-3----3-3-|


                               Outro
     PM|      PM|
  Q  S S H    S S   H    H      W          W
|-2------2--------|-----------|----------|------|
|-5------5--------|-----------|-3--------|-5----|
|-4------4--------|-7---------|-3--------|-5----|
|-2------2--------|-7----7----|-3--------|-5----|
|-2------2--------|-5----7----|-1--------|-3----|
|-0--0-0-0----0-0-|------5----|----------|------|
|
| Gtr III
| W                 W           W          W
|-----------------|-----------|----------|------|
|-----------------|-----------|-3--------|-5----|
|-----------------|-----------|-3--------|-5----|
|-----------------|-----------|-3--------|-5----|
|-----------------|-----------|-1--------|-3----|
|-----------------|-----------|----------|------|


  Q  Q  Q  Q    Q  Q  Q  Q    Q.   Q  E Q    Q.   Q  E Q
|-3--6--5--3--|-5--5--------|--------------|--------------|
|-3-----------|-6-----6-----|-6----6-------|-5----5-------|
|-3-----------|-7--------7--|-5-------5-5--|-5-------5-5--|
|-5-----------|-7-----------|-5------------|-5------------|
|-------------|-5-----------|-3------------|-3------------|
|-3-----------|-------------|--------------|--------------|
|
| W             W             W              W
|-3-----------|-5-----------|--------------|--------------|
|-3-----------|-6-----------|-6------------|-5------------|
|-3-----------|-7-----------|-5------------|-5------------|
|-5-----------|-7-----------|-5------------|-5------------|
|-------------|-5-----------|-3------------|-3------------|
|-3-----------|-------------|--------------|--------------|


  |-3-|                     |-3--|               |-3-|
  Q Q Q Q  Q    W           Q  Q Q H       H     Q Q Q
|-------6-----|-6--------|---------8----|--8------------|
|-----6----6--|-6--------|-------8------|--8------------|
|-------------|-7--------|--------------|-10----10-9-7--|
|---8---------|-8--------|----10--------|-10------------|
|-6-----------|----------|--8-----------|--------8-7-5--|
|-------------|-6--------|--------------|---------------|
|
| W             W           W              W
|-6-----------|-6--------|--8-----------|--8------------|
|-6-----------|-6--------|--8-----------|--8------------|
|-------------|-7--------|--------------|-10------------|
|-8-----------|-8--------|-10-----------|-10------------|
|-6-----------|----------|--8-----------|---------------|
|-------------|-6--------|--------------|---------------|


  Q  E E Q  Q    W          W          +W
|--------3-----|-3--------|----------|--------|
|------3----3--|-3--------|-3--------|-(3)----|
|-5--5---------|-5--------|-2--------|-(2)----|
|-5------------|-5--------|-4--------|-(4)----|
|-3------------|-3--------|-5--------|-(5)----|
|--------------|----------|----------|--------|
|
| W              W          W          +W
|--------------|-3--------|----------|--------|
|--------------|-3--------|-3--------|-(3)----|
|-5------------|-5--------|-2--------|-(2)----|
|-5------------|-5--------|-4--------|-(4)----|
|-3------------|-3--------|-5--------|-(5)----|
|--------------|----------|----------|--------|


  +W           +W           +W           +W           +W
|------------|------------|------------|------------|--------*|
|-(3)--------|-(3)--------|-(3)--------|-(3)--------|-(3)----*|
|-(2)--------|-(2)--------|-(2)--------|-(2)--------|-(2)----*|
|-(4)--------|-(4)--------|-(4)--------|-(4)--------|-(4)----*|
|-(5)--------|-(5)--------|-(5)--------|-(5)--------|-(5)----*|
|------------|------------|------------|------------|--------*|
|
| +W           +W           +W           +W           +W
|------------|------------|------------|------------|--------*|
|-(3)--------|-(3)--------|-(3)--------|-(3)--------|-(3)----*|
|-(2)--------|-(2)--------|-(2)--------|-(2)--------|-(2)----*|
|-(4)--------|-(4)--------|-(4)--------|-(4)--------|-(4)----*|
|-(5)--------|-(5)--------|-(5)--------|-(5)--------|-(5)----*|
|---
Добавлено: 07.04.2012
Другие материалы по этой песне:

Страница создана 12.03.2012
http://primanota.ru/dream-theater/metropolis-part-1-the-miracle-and-the-sleeper-chords.htm
Привет, Гость.
Предлагаем пройти революционный курс по гитаре.
Подарок от PrimaNota.Ru, забирай!