PrimaNota.ru - самый крупный в мире бесплатный архив песенных текстов, аккордов, табулатур и нот


Dream Theater - Ministry Of Lost Souls - текст песни, таба, видео

Регистрация Запомнить меня
Войти через:  Facebook Google Twitter Vk Yandex Mail.ru

Dream Theater - Ministry Of Lost Souls - текст песни, таба, видео

Печатать
Просмотров: 315
Dream Theater: The Ministry Of Lost Souls

Transcribed by: Andrew Zara (disturbedfreak0520@yahoo.com)

Date last modified: June 8, 2007
 
PLEASE DO NOT COPY THIS TAB TO ANOTHER SITE
WITHOUT AUTHORS' PERMISSION. THANK YOU.

Tuning: Standard (E,A,D,G,B,E)

E  E  E  E  Q    Q       E  E  E  E  Q    Q       E  E  E  E  Q    Q     
E||--------------7----5----|--------------7----8----|--------------7----5----|
B||-----5--6--5------------|-----5--6--5------------|-----5--6--5------------|
G||------------------------|------------------------|------------------------|
D||------------------------|------------------------|------------------------|
A||--0---------------------|--0---------------------|--0---------------------|
E||------------------------|------------------------|------------------------|


  E  E  E  E   Q     Q       E  E  E  E  E  E  Q       E  E  E  E  Q    E  E   
--------------10----12----|-----------0-------------|--------------3----1--0--|
-----5--6--5--12----13----|--------1-----4-----1----|--------1----------------|
--------------------------|-----2-------------------|-----1-----1-------------|
--------------------------|-------------------------|--3----------------------|
--0-----------------------|--0--------------0-------|-------------------------|
--------------------------|-------------------------|-------------------------|


  E  E  E  E  E  E  E  E     E  E  E  E  E  E  E  E   
--------------0-----------|--------------0-----------|
--------1-----------1-----|-----------0--------------|
-----------0-----------0--|--------0-----------3--2--|
-----2--------------------|-----2--------------------|
--3--------------3--------|--------------------------|
--------------------------|--0--------------0--------|


  E  E  E  E  E  E  E  E     E  E  E  E  E  E  E  E   
--------------0-----------|--------------3-----------|
-----------1-----1--------|--------1-----------1-----|
--------4-----------4-----|-----0-----0-----------0--|
-----2-----------------2--|--3--------------3--------|
--0-----------------------|--------------------------|
--------------------------|--------------------------|


  E  E  E  E  E  E  E  E     E  E  E  E  E  E  E  E   
--------------0-----------|--------------3-----------|
-----------1--------1-----|-----------3--------3-----|
--------0--------------0--|--------0--------------0--|
-----2--------------------|-----0--------------------|
--3--------------3--------|--------------------------|
--------------------------|--3--------------3--------|


  E  E  E  E  E  E  E  E          
--------------3-----------|-----||
-----------4-----4--------|-----||
--------4-----------4-----|-----||
-----5-----------------5--|-----||
--------------------------|-----||
--3-----------------------|-----||




Duration Legend
---------------
W - whole
H - half
Q - quarter
E - 8th
S - 16th
T - 32nd
X - 64th
. - note dotted
|-n-|  - n-tuplets


Tablature Legend
----------------
L - tied note
x - dead note
g - grace note
(n) - ghost note
> - accentuded note
NH - natural harmonic
AH - artificial harmonic
TH - tapped harmonic
SH - semi harmonic
PH - pitch harmonic
h - hammer on
p - pull off
b - bend
br - bendRelease
pb - preBend
pbr - preBendRelease
brb - bendReleaseBend
\n/ - tremolo bar dip
\n - tremolo bar dive
-/n - tremolo bar Release up
/n\ - tremolo bar inverted dip
/n - tremolo bar return
-\n - tremolo bar Release down
S - shift slide
s - legato slide
/ -  slide into from below or out of upwards
\ -  slide into from above or out of downwards
~ - vibrato
W - wide vibrato
tr - trill
TP - tremolo picking
T - tapping
S - slap
P - pop
< - fade in
^ - brush up
v - brush down
Добавлено: 19.05.2012
Другие материалы по этой песне:

Страница создана 19.03.2012
http://primanota.ru/dream-theater/ministry-of-lost-souls-chords.htm
Привет, Гость.
Предлагаем пройти революционный курс по гитаре.
Подарок от PrimaNota.Ru, забирай!