PrimaNota.ru - самый крупный в мире бесплатный архив песенных текстов, аккордов, табулатур и нот


Dream Theater - Forsaken - текст песни, таба, бас-таба, видео

Регистрация Запомнить меня
Войти через:  Facebook Google Twitter Vk Yandex Mail.ru

Dream Theater - Forsaken - текст песни, таба, бас-таба, видео

Печатать
Просмотров: 548
Авторы музыки: Dream Theater
Авторы текста: John Petrucci
-------------------------------------------------------------------------------
                             FORSAKEN INTRO - Dream Theater
-------------------------------------------------------------------------------
Tabbed by:Tordenstorm
Email:torden_storm@yahoo.com

Tuning:standard


| /  slide up
| \  slide down
| h  hammer-on
| p  pull-off
| ~  vibrato
|<#>  harmonic
| x  Mute note


e|----------------------------------------------------|
B|----------------------------------------------------|
G|-5/7--7-----------------<4>~~-5/7--7-------------5--|
D|-5/7--7-----------------------5/7--7-------------5--|
A|-3/5--5----8~~~-7~~~-3~~------3/5--5-------------3--|
E|----------------------------------------2~~~-1~~~---|

e|----------------------------------------------------|
B|----------------------------------------------------|
G|-5/7--7-----------------------5/7--7----------------|
D|-5/7--7-----------------<4>~~-5/7--7-------------4--|
A|-3/5--5----8~~~-7~~~-3~~------3/5--5----2~~~-1~~~4--|
E|-------------------------------------------------2--|

This was my first online tab. i think it sounds OK. enjoy
Добавлено: 12.07.2012
Другие материалы по этой песне:

Страница создана 25.02.2012
http://primanota.ru/dream-theater/forsaken-chords.htm
Привет, Гость.
Предлагаем пройти революционный курс по гитаре.
Подарок от PrimaNota.Ru, забирай!